Oops, an error
Loading. Please wait.

El Noi De La Mare Tab

464 views 3 this week
no commentswrite comment
1 2 3 4 5
2 more votes to show rating
add to favorites
launch autoscroll
font size
0
reset
how to read this tab
guitar tuner
Autoscroll
slow
fast
+/-
esc
set tempo
stop
Help us to improve Ultimate-Guitar.com Take our survey!
×
El Noy De La Mare (El hijo de la virgen)
Trad. Miguel LLobet (1878-1938)
Afinación. DADGBE  COMPÁS: 6/8


 affabilmentegioso        |           |            |           |
|2-----3-5---5-----7-9---|10----9-7---7-------5---|2-----3-5---5-----7-9-|
|3-----------5-----------|7-----------5-----------|3-----------5---------|
|2-----------6-----------|------------6-----------|2-----------2---------|
|------------------------|9-----------------------|0---0-----------------|
|------------------------|------------------------|------------4---4-----|
|0---0-------0---0-------|0---0-------0---0-------|----------------------|

 |           |            |           |            |           |
|10----9-7---5-----------|2-----3-5---5-----------|0-------0---2---------|
|7---9-------5-----------|2-----------7-----8-7---|3-----3-----3-------3-|
|7---7-------7-------6---|2-----------4-----9-7---|0---------------------|
|------------------------|0---0-------------------|----------------------|
|----7-------0-----------|------------------------|0---0-------1---1-----|
|9-----------------------|------------5---5-------|----------------------|

 |           |            |           |         ,  ponticello  |
|2-----3-5---5-----3-----|------------------------|2-----3-5---5-----7-9-|
|3-----5-7---0-----5-7---|5-----7-5---3-----------|3-----------5---------|
|------------0-------7---|7---6---6---2-----------|2-----------6---------|
|------------------------|--------5---5-------4---|----------------------|
|2---2-------------------|0-----------------------|----------------------|
|------------2-----4-5---|------------0-----------|0---0-------0---0-----|

 |           |       rubatnaturale    |            |           |
|10----9-7---7-------5---|2-----3-5---5-----7-9---|10----9-7---5---------|
|7-----------5-----------|3-----------5-----------|7---9-------5---------|
|------------6-----------|2-----------2-----------|7---7-------7-------6-|
|9-----------------------|0---0-------------------|----------------------|
|------------------------|------------4---4-------|----7-------0---------|
|0---0-------0---0-------|------------------------|9---------------------|

 ponticello  |            |           |            |           |
|2-----3-5---5-----------|0-------0---2-----------|2-----3-5---5-----3---|
|2-----------7-----8-7---|3-----3-----3-------3---|3-----5-7---0-----5-7-|
|2-----------4-----9-7---|0-----------------------|------------0-------7-|
|0---0-------------------|------------------------|----------------------|
|------------------------|0---0-------1---1-------|2---2-----------------|
|------------5---5-------|------------------------|------------2-----4-5-|

 |           |         ,  |           |            |           |
|------------------------|10----9-7---5-----3-2---|0-------0---2---------|
|5-----7-5---3-----------|7-----------7-----------|3-----3-2---3-------3-|
|7---6---6---2-----------|------------6-----------|4-------0---2---------|
|--------5---5-------4---|9-----------------------|----------------------|
|0-----------------------|------------------------|----------------------|
|------------0-----------|0---0-------0---0-------|0---0-------0---------|

 |           |            |           |       ,    |           |
|10----9-7---5-----3-2---|0-----2-0---------------|2-----3-5---5---------|
|7-----------2-----------|0---2-------3-----------|2-----------7-----8-7-|
|7-----------2-----------|0---0-------2-----------|2-----------4-----9-7-|
|------------------------|------------4-----------|0---0-----------------|
|------------------------|----0-------------------|----------------------|
|9---9-------4---4-------|5-----------0-----------|------------5---5-----|

 |           |            >           |            |           |
|0-------0---2-----------|2-----3-5---5-----3-----|----------------------|
|3-----3-----3-------3---|3-----5-7---0-----5-7---|5-----7-5---3---------|
|0-----------------------|------------0-------7---|7---6---6---2---------|
|------------------------|------------------------|--------5---5-------4-|
|0---0-------1---1-------|2---2-------------------|0---------------------|
|------------------------|------------2-----4-5---|------------0---------|

 |           |            |           |            |           |     rita
|10----9-7---5-----3-2---|0-------0---2-----------|10----9-7---5-----3-2-|
|7-----------2-----------|0-----2-2---3-------3---|0-----------4-------4-|
|7-----------2-----------|0-------0---2-------5---|0-----------4-------2-|
|------------------------|----------------0-------|----------------------|
|------------------------|----0-------------------|--------------------2-|
|9---9-------4---4-------|5-----------0-----------|5---5-------4---4-----|

 glissandoo  |       a tempo    ponticello    naturale    dolce expresivo
|0-----3-0---------------|------1-0---------------|5°--------------------|
|0---1---2---3-----------|------1-2---3-----------|--------7-------5-----|
|0-------0---2-----------|------1-0---2-----------|--------7-------6-----|
|2-----------4-----------|7----------4-------7--|--------6-------5-----|
|----0---------------12-|--------0---------------|--------7-------0-----|
|------------0-----------|------------0-----------|----------------------|

 |           |
|------------10---------||
|3-----------7----------||
|2-----------7----------||
|4-----------0----------||
|0-----------0----------||
|0-----------0----------||
Suggest correction
Give kudos to tab author, rate the tab!
1 2 3 4 5
comments
print report bad tab
guest
You may want to rate the tab now too:
select rating
Wanna post a correction for this tab? Suggest correction