Oops, an error
Loading. Please wait.

El Rio De La Vida Tab

34 views 1 this week
no commentswrite comment
1 2 3 4 5
3 more votes to show rating
add to favorites
launch autoscroll
font size
0
reset
how to read this tab
guitar tuner
×
Best way to learn
"El Rio De La Vida"
Autoscroll
slow
fast
+/-
esc
set tempo
stop
El rio de la vida

BUENO AQUI VAMOS!!!!

|-----0-------0-------0-------0-------0-------0-------0-------0---|
|-----0-------0-------0-------0-------0-------0-------0-------0---|
|-----0-------0-------0-------0-------0-------0-------0-------0---|
|---------4---------------4---------------4---------------4-------|
|-2---------------2---------------2---------------3---------------|
|-----------------------------------------------------------------|


|-----0-------0-------0-------0-------0-------0-------0-------0---|
|-----0-------0-------0-------0-------0-------0-------0-------0---|
|-----0-------0-------0-------0-------0-------0-------0-------0---|
|---------4---------------4---------------4---------------4-------|
|-2---------------2---------------2---------------3---------------|
|-----------------------------------------------------------------|


|-----0-------0-------0-------0-------0-------0-------0-------0---|
|-----0-------0-------0-------0-------0-------0-------0-------0---|
|-----0-------0-------0-------0-------0-------0-------0-------0---|
|---------4---------------4---------------4---------------4-------|
|-2---------------3---------------2---------------0---------------|
|-----------------------------------------------------------------|


|-----0-------0-------0-------0-------0-------0-------0-------0---|
|-----1-------1-------1-------1-------1-------1-------1-------1---|
|-----0-------0-------0-------0-------0-------0-------0-------0---|
|---------5---------------5---------------5---------------5-------|
|-3---------------3---------------3---------------5---------------|
|-----------------------------------------------------------------|


|-----0-------0-------0-------0-------0-------0-------0-------0---|
|-----1-------1-------1-------1-------1-------1-------1-------1---|
|-----0-------0-------0-------0-------0-------0-------0-------0---|
|---------5---------------5---------------5---------------5-------|
|-3---------------3---------------3---------------0---------------|
|-----------------------------------------------------------------|


|-------0-------0-------0-------0-------0-------0-------0-------0-|
|-----0-------0-------0-------0-------0-------0-------0-------0---|
|---0-------0-------0-------0-------0-------0-------0-------0-----|
|---------4---------------4---------------4---------------4-------|
|-2---------------2---------------2---------------3---------------|
|-----------------------------------------------------------------|


|-------0-------0-------0-------0-------0-------0-------0-------0-|
|-----0-------0-------0-------0-------0-------0-------0-------0---|
|---0-------0-------0-------0-------0-------0-------0-------0-----|
|---------4---------------4---------------4---------------4-------|
|-2---------------2---------------2---------------3---------------|
|-----------------------------------------------------------------|


|-------0-------0-------0-------0-------0-------0-------0-------0-|
|-----0-------0-------0-------0-------0-------0-------0-------0---|
|---0-------0-------0-------0-------0-------0-------0-------0-----|
|---------4---------------4---------------4---------------4-------|
|-2---------------3---------------2---------------0---------------|
|-----------------------------------------------------------------|


|-------0-------0-------0-------0-------0-------0-------0-------0-|
|-----1-------1-------1-------1-------1-------1-------1-------1---|
|---0-------0-------0-------0-------0-------0-------0-------0-----|
|---------5---------------5---------------5---------------5-------|
|-3---------------3---------------3---------------5---------------|
|-----------------------------------------------------------------|


|-------0-------0-------0-------0-------0-------0-------0-------0-|
|-----1-------1-------1-------1-------1-------1-------1-------1---|
|---0-------0-------0-------0-------0-------0-------0-------0-----|
|---------5---------------5---------------5---------------5-------|
|-3---------------3---------------3---------------0---------------|
|-----------------------------------------------------------------|


|---0-------------0-------2-------0-------2-------0-------0-------0-|
|-------0-------0-------0-------0-------0-------0-------0-------0---|
|---------0---0-------0-------0-------0-------0-------0-------0-----|
|-----------4---------------4---------------4---------------4-------|
|-2-----------------2---------------2---------------2---------------|
|-------------------------------------------------------------------|


|-------2-------0-------2-------0-------0-------0-------2-------0-|
|-----0-------0-------0-------0-------0-------0-------0-------0---|
|---0-------0-------0-------0-------0-------0-------0-------0-----|
|---------4---------------4---------------4---------------4-------|
|-2---------------2---------------2---------------2---------------|
|-----------------------------------------------------------------|


|-------2-------0-------0-------0-------2-------0-------2-------0-|
|-----0-------0-------0-------0-------0-------0-------0-------0---|
|---0-------0-------0-------0-------0-------0-------0-------0-----|
|---------4---------------4---------------4---------------4-------|
|-2---------------2---------------2---------------2---------------|
|-----------------------------------------------------------------|


|-------0-------0-------3-------0-------3-------0-------0-------0-|
|-----1-------1-------1-------1-------1-------1-------1-------1---|
|---0-------0-------0-------0-------0-------0-------0-------0-----|
|---------5---------------5---------------5---------------5-------|
|-3---------------3---------------3---------------3---------------|
|-----------------------------------------------------------------|


|-------3-------0-------3-------0-------0-------0-------2-------0-|
|-----1-------1-------1-------1-------0-------0-------0-------0---|
|---0-------0-------0-------0-------0-------0-------0-------0-----|
|---------5---------------5---------------4---------------4-------|
|-3---------------3---------------2---------------2---------------|
|-----------------------------------------------------------------|


|-------2-------0-------0-------0-------2-------0-------2-------0-|
|-----0-------0-------0-------0-------0-------0-------0-------0---|
|---0-------0-------0-------0-------0-------0-------0-------0-----|
|---------4---------------4---------------4---------------4-------|
|-2---------------2---------------2---------------2---------------|
|-----------------------------------------------------------------|


|-------0-------0-------3-------0-------3-------0-------0-------0-|
|-----1-------1-------1-------1-------1-------1-------1-------1---|
|---0-------0-------0-------0-------0-------0-------0-------0-----|
|---------5---------------5---------------5---------------5-------|
|-3---------------3---------------3---------------3---------------|
|-----------------------------------------------------------------|


|-------3-------0-------3-------0-------3-------3-------5-------3-|
|-----1-------1-------1-------1-------3-------3-------3-------3---|
|---0-------0-------0-------0-------4-------4-------4-------4-----|
|---------5---------------5---------------5---------------5-------|
|-3---------------3-----------------------------------------------|
|---------------------------------3---------------3---------------|


|-------5-------3-------3-------3-------5-------3-------5-------3-|
|-----3-------3-------3-------3-------3-------3-------3-------3---|
|---4-------4-------4-------4-------4-------4-------4-------4-----|
|---------5---------------5---------------5---------------5-------|
|-----------------------------------------------------------------|
|-3---------------3---------------3---------------3---------------|


|-------0-------0-------3-------0-------3-------0-------0-------0-|
|-----0-------0-------0-------0-------0-------0-------0-------0---|
|---0-------0-------0-------0-------0-------0-------0-------0-----|
|---------4---------------4---------------4---------------4-------|
|-5---------------5---------------5---------------5---------------|
|-----------------------------------------------------------------|


|-------3-------0-------3-------0-------0-------0-------0-------0-|
|-----0-------0-------0-------0-------0-------0-------0-------0---|
|---0-------0-------0-------0-------0-------0-------0-------0-----|
|---------4---------------4---------------4---------------4-------|
|-5---------------5---------------5---------------5---------------|
|-----------------------------------------------------------------|


|--------0------0-------0-------0-------0-------0-------0-----0---|
|-----0-------0-------0-------0-------0-------0-------0-----------|
|---0-------0-------0-------0-------0-------0-------0-------------|
|---------4---------------4---------------4---------------4-------|
|-5---------------5---------------5---------------5---------------|
|-----------------------------------------------------------------|


|-0-0-0-0-0-0-0-0-0-0-0-0------0-0-0-0-0-0-0-0-0-0-0-0-0-0-0-0-0-----|
|-0-0-0-0-0-0-0-0-1-1-1-1------1-1-1-1-1-1-1-1-1-1-1-1-1-1-1-1-1-----|
|-0-0-0-0-0-0-0-0-0-0-0-0------0-0-0-0-0-0-0-0-0-0-0-0-0-0-0-0-0-----|
|-4-4-4-4-2-2-2-2-2-2-2-2------2-2-2-2-2-2-2-2-2-2-2-2-2-2-2-2-2-----|
|-----------------3-3-3-3------3-3-3-3-3-3-3-3-3-3-3-3-3-3-3-3-3-----|
|--------------------------------------------------------------------|


|---------------------------------------0-----------0-------0---------|
|-0-1-3--p1p0-------------------------1---1-------1-------1-----------|
|-------------2p0-------------------0-------0---0-------0-------------|
|-----------------4-2-0---------4-------------4-------4---------------|
|-----------------------3-2-----------------------------------2-------|
|---------------------------------------------------------------------|


|-0-0-0-0-0-0-0-0-0-0-0-0-0-0-0-0-0-----------------------------|
|-1-1-1-1-1-1-1-1-1-1-1-1-1-1-1-1-1-------0-1-3--p1-0-----------|
|-0-0-0-0-0-0-0-0-0-0-0-0-0-0-0-0-0------------------2p0--------|
|-2-2-2-2-2-2-2-2-2-2-2-2-2-2-2-2-2---------------------420-----|
|-3-3-3-3-3-3-3-3-3-3-3-3-3-3-3-3-3------------------------32---|
|---------------------------------------------------------------|


|---------0-----------0-------0-------0-------0-------0-------0-|
|-------1---1-------1-------1-------1-------1-------1-------1---|
|-----0-------0---0-------0-------0-------0-------0-------0-----|
|-4-------------4---------------4-------4---------------4-------|
|-----------------------2-----------------------2---------------|
|---------------------------------------------------------------|


|-------0-------0-------0-------0----------0-----------------|
|-----1-------1-------1-------1---------1--------------------|
|---0-------0-------0-------0--------0-----------------------|
|---------4---------------4-------4-----------4--------------|
|-2---------------2------------------------------------------|
|------------------------------------------------------------|


|-----------------------------------0-----------0---------|
|---------------------------------1---1-------1-----------|
|-------------2-----------------0-------0---0-------------|
|-2---2-2h4h5---5p4-2---------4-----------4-------4-------|
|---------------------5-3-2-------------------------------|
|---------------------------------------------------------|


|--------------------------------------0--------------0-----------0-|
|-----------------------------------1-----1---------1---1-------1---|
|-------------2------------------0-----------0----0-------0---0-----|
|-2---2-2h4h5---5p4-2---------4-----------------4-----------4-------|
|---------------------5-3-2-----------------------------------------|
|-------------------------------------------------------------------|


|-------0-----------------------------------------------------------|
|-----1-------------------------------------------------------------|
|---0------------------------2---2-2-2-2h4p2-2------0---2h4p2-----0-|
|-4-------4------2---2-2h4-5------------------5-4-------------5-4---|
|-------------------------------------------------------------------|
|-------------------------------------------------------------------|


|---------------------------------------0-----------0-------------|
|-------------------------------------1---1-------1---1-----------|
|-2h4p2-----------------------------0-------0---0-------0---------|
|-------5-4--5--2h4p2-0h2p0-------4-----------4-----------4-------|
|---------------------------3-------------------------------------|
|-----------------------------------------------------------------|


|---------------------------------------------------------------|
|---------------------------------------------------------------|
|-------2-4-2-----------2-4-5-5/7---7--5h7-p5-2h4p2-0h2p0-------|
|-2-4-5-------5-4-2-4-5-----------------------------------4-----|
|---------------------------------------------------------------|
|---------------------------------------------------------------|


|------------------------0-----------0-------0---------------------------|
|---------------------1----1-------1-------1-----------------------------|
|-------------------0--------0---0-------0-------------------------------|
|-4--5--4--2-----2-------------2-------2-------2------------2--2/4--2----|
|-------------3---------------------------------------3--5-------------5-|
|------------------------------------------------------------------------|


|-----------------------------------------------0--------------0-------0-|
|--------------------------------------------1-----1---------1-------1---|
|-----------------------------------------0-----------0----0-------0-----|
|-------2--2/4--2----------------------4-----------------4-------4-------|
|-3--5-------------5--3--2--3----2-2-------------------------------------|
|------------------------------------------------------------------------|


|-------0-------0-------0-------0---------|
|-----1-------1-------1-------1-----------|
|---0-------0-------0-------0-------------|
|-4-------4---------------4---------------|
|-----------------2---------------2-------|
|-----------------------------------------|


|-----------------------------0-0-0-0-----0-0-0-0-----|
|-----------------------------1-1-1-1-----1-1-1-1-----|
|-------------2---------------0-0-0-0-----0-0-0-0-----|
|-2---2-2h4h5---5p4-2---------4-4-4-4-----4-4-4-4-----|
|---------------------5-3-2---2-2-2-2-----2-2-2-2-----|
|-----------------------------------------------------|


|-----------------------------0-0-0-0-----0-0-0-----|
|-----------------------------1-1-1-1-----1-1-1-----|
|-------------2---------------0-0-0-0-----0-0-0-----|
|-2---2-2h4h5---5p4-2---------4-4-4-4-----4-4-4-----|
|---------------------5-3-2---2-2-2-2-----2-2-2-----|
|---------------------------------------------------|


|--------------------------------------------0-0-0-----|
|--------------------------------------------1-1-1-----|
|-------2--------------------2---------------0-0-0-----|
|-2h4-5---5p4-2--------2h4-5---5p4-2---------4-4-4-----|
|---------------5-3-2----------------5-3-2---2-2-2-----|
|------------------------------------------------------|


|-----------------------------------------2---2-332-3-5-3--5--7-------|
|-----------------------------3---3-5-3-5---5-----------------7-------|
|-------2-----2-4---2-4-5-4-5---5-----------------------------8-------|
|-2-4-5-----5-------------------------------------------------9-------|
|-------------------------------------------------------------9-------|
|-------------------------------------------------------------7-------|


|---0-0-0---2-2-2---3-3-3---3-3-3---3-3-3---3-3-3---3-3-3---3-3-3---3-3-3-|
|-------------------------------------------------------------------------|
|*----------------0-----------------------0-----------------------0-------|
|*------------------------------------------------------------------------|
|---------2-----------------------2-----------------------2---------------|
|-0-----------------------0-----------------------0-----------------------|


|---0-0-0---2-2-2---3-3-3---2-2-2---2-2-2---0-0-0-------------------------|
|---------------------------------------------------3-3-3---3-3-3---1-1-1-|
|-----------------0-----------------------0-----------------------0-------|
|-------------------------------------------------------------------------|
|---------2-----------------------2-----------------------2---------------|
|-0-----------------------0-----------------------0-----------------------|


|-------------------------------------------------------------------------|
|---0-0-0---0-0-0---0-0-0---0-0-0---0-0-0---0-0-0---0-0-0---0-0-0---0-0-0-|
|-----------------0-----------------------0-----------------------0-------|
|-------------------------------------------------------------------------|
|---------2-----------------------2-----------------------2---------------|
|-0-----------------------0-----------------------0-----------------------|


|-------------------------|
|---0-0-0---0-0-0---0-0-0-|
|-----------------0------*|
|------------------------*|
|---------2---------------|
|-0-----------------------|


|---0-0-0---2-2-2---3-3-3---2-2-2---0-0-0---3-3-3---2-2-2---2-2-2---2-2-2-|
|-----------------1-----------------------1-----------------------1-------|
|---------0-----------------------0-----------------------0---------------|
|-------------------------------------------------------------------------|
|-3-----------------------3-----------------------3-----------------------|
|-------------------------------------------------------------------------|


|---2-2-2---2-2-2---2-2-2---0-0-0---2-2-2---3-3-3---7-7-7---5-5-5---3-3-3-|
|-----------------1-----------------------1-------------------------------|
|---------0-----------------------0---------------7-------5-------4-------|
|-------------------------------------------------------------------------|
|-3-----------------------3-----------------------------------------------|
|-------------------------------------------------------------------------|


|---5-5-5---3-3-3---5-5-5---7-7-7---5-5-5---0-0-0---3-3-3---3-3-3---3-3-3-|
|-------------------------------------------------------------------------|
|-5-------4-------5-------7-------5-------------------------------0-------|
|-----------------------------------------5---------------2---------------|
|-------------------------------------------------3-----------------------|
|-------------------------------------------------------------------------|


|---3-3-3---3-3-3---3-3-3---3-3-3---3-3-3---3-3-3---3-3-3---3-3-3---3-3-3-|
|-------------------------------------------------------------------------|
|-----------------0-----------------------0-----------------------0-------|
|---------2-----------------------2-----------------------2---------------|
|-3-----------------------3-----------------------3-----------------------|
|-------------------------------------------------------------------------|


|---3-3-3---2-2-2---0-0-0-------------------------------------------0-0-0-|
|-----------------1---------3-3-3---1-1-1---0-0-0---1-1-1---3-3-3---------|
|---------0-------------------------------0-----------------------0-------|
|---------------------------------2-----------------------2---------------|
|-3-----------------------3-----------------------3-----------------------|
|-------------------------------------------------------------------------|


|---2-2-2---0-0-0---0-0-0---------------------------------------------0---|
|-----------------------------0-------0-------0-------0-------0-----------|
|-----------------0-----------------------4-----------------------4-------|
|---------0-----------------------4-----------------------4---------------|
|-3-----------------------2-----------------------2-----------------------|
|-------------------------------------------------------------------------|


|-----0-------0-------0----------|
|--------------------------------|
|-----------------4--------------|
|---------4----------------------|
|-2------------------------------|
|--------------------------------|


|---0-0-0---2-2-2---3-3-3---3-3-3---3-3-3---3-3-3---3-3-3---3-3-3---3-3-3-|
|-------------------------------------------------------------------------|
|*----------------0-----------------------0-----------------------0-------|
|*------------------------------------------------------------------------|
|---------2-----------------------2-----------------------2---------------|
|-0-----------------------0-----------------------0-----------------------|


|---0-0-0---2-2-2---3-3-3---2-2-2---2-2-2---0-0-0-------------------------|
|---------------------------------------------------3-3-3---3-3-3---1-1-1-|
|-----------------0-----------------------0-----------------------0-------|
|-------------------------------------------------------------------------|
|---------2-----------------------2-----------------------2---------------|
|-0-----------------------0-----------------------0-----------------------|


|-------------------------------------------------|
|---0-0-0---0-0-0---0-0-0---0-0-0---0-0-0---0-0-0-|
|-----------------0-----------------------0------*|
|------------------------------------------------*|
|---------2-----------------------2---------------|
|-0-----------------------0-----------------------|


|---0-0-0---2-2-2---3-3-3---2-2-2---0-0-0---3-3-3---2-2-2---2-2-2---2-2-2-|
|-----------------1-----------------------1-----------------------1-------|
|---------0-----------------------0-----------------------0---------------|
|-------------------------------------------------------------------------|
|-3-----------------------3-----------------------3-----------------------|
|-------------------------------------------------------------------------|


|---2-2-2---2-2-2---2-2-2---0-0-0---2-2-2---3-3-3---7-7-7---5-5-5---3-3-3-|
|-----------------1-----------------------1-------------------------------|
|---------0-----------------------0---------------7-------5-------4-------|
|-------------------------------------------------------------------------|
|-3-----------------------3-----------------------------------------------|
|-------------------------------------------------------------------------|


|---5-5-5---3-3-3---5-5-5---7-7-7---5-5-5---0-0-0---3-3-3---3-3-3---3-3-3-|
|-------------------------------------------------------------------------|
|-5-------4-------5-------7-------5-------------------------------0-------|
|-----------------------------------------5---------------2---------------|
|-------------------------------------------------3-----------------------|
|-------------------------------------------------------------------------|


|---3-3-3---3-3-3---3-3-3---3-3-3---3-3-3---3-3-3---3-3-3---3-3-3---3-3-3-|
|-------------------------------------------------------------------------|
|-----------------0-----------------------0-----------------------0-------|
|---------2-----------------------2-----------------------2---------------|
|-3-----------------------3-----------------------3-----------------------|
|-------------------------------------------------------------------------|


|---3-3-3---2-2-2---0-0-0-------------------------------------------0-0-0-|
|-----------------1---------3-3-3---1-1-1---0-0-0---1-1-1---3-3-3---------|
|---------0-------------------------------0-----------------------0-------|
|---------------------------------2-----------------------2---------------|
|-3-----------------------3-----------------------3-----------------------|
|-------------------------------------------------------------------------|


|---2-2-2---0-0-0---2-2-2---3-3-3---2-2-2---0-0-0---2-2-2---0-0-0---2-2-2-|
|-----------------1-----------------------1-----------------------1-------|
|---------0-----------------------0-----------------------0---------------|
|-------------------------------------------------------------------------|
|-3-----------------------3-----------------------3-----------------------|
|-------------------------------------------------------------------------|


|---3-3-3---2-2-2---0-0-0---2-2-2---0-0-0---2-2-2---3-3-3---2-2-2---0-0-0-|
|------------------1----------------------1-----------------------1-------|
|---------0-----------------------0-----------------------0---------------|
|-------------------------------------------------------------------------|
|-3-----------------------3-----------------------3-----------------------|
|-------------------------------------------------------------------------|


|---2-2-2---0-0-0---2-2-2---2-2-2---2-2-2---2-2-2---2-2-2-----2-------2---|
|-----------------0-------------------------------------------------------|
|---------0-------------------------------4-----------------------4-------|
|-------------------------------------------------------------------------|
|-3-------------------------------2-----------------------2---------------|
|-------------------------2-----------------------2-----------------------|


|-----2-------2-------------|
|-4---------------4---------|
|---------4-----------------|
|---------------------------|
|---------------------------|
|---------------------------|


|---0-0-0---2-2-2---3-3-3---3-3-3---3-3-3---3-3-3---3-3-3---3-3-3---3-3-3-|
|-------------------------------------------------------------------------|
|-----------------0-----------------------0-----------------------0-------|
|-------------------------------------------------------------------------|
|---------2-----------------------2-----------------------2---------------|
|-0-----------------------0-----------------------0-----------------------|


|---0-0-0---2-2-2---3-3-3--101010--101010--101010---8-8-8---8-8-8---8-8-8-|
|-----------------0-------------------------------------------------------|
|---------0-------------------------------0-----------------------5-------|
|---------------------------------9-----------------------7---------------|
|-------------------------------------------------------------------------|
|-0-----------------------0-----------------------0-----------------------|


|---7-7-7---7-7-7---7-7-7---7-7-7---7-7-7---7-7-7---0-0-0---2-2-2---3-3-3-|
|-------------------------------------------------------------------------|
|-----------------4-----------------------4-----------------------0-------|
|---------5-----------------------5---------------------------------------|
|---------------------------------------------------------2---------------|
|-0-----------------------0-----------------------0-----------------------|


|---3-3-3---3-3-3---3-3-3---3-3-3---3-3-3---3-3-3---0-0-0---2-2-2---3-3-3-|
|-----------------------------------------------------------------0-------|
|-----------------0-----------------------0---------------0---------------|
|-------------------------------------------------------------------------|
|---------2-----------------------2---------------------------------------|
|-0-----------------------0-----------------------0-----------------------|


|--101010--101010--101010---8-8-8---8-8-8---8-8-8---7-7-7---7-7-7---7-7-7-|
|-------------------------------------------------------------------------|
|-----------------0-----------------------5-----------------------4-------|
|---------9-----------------------7-----------------------5---------------|
|-------------------------------------------------------------------------|
|-0-----------------------0-----------------------0-----------------------|


|---7-7-7---7-7-7---7-7-7-|
|-------------------------|
|-----------------4-------|
|---------5---------------|
|-------------------------|
|-0-----------------------|


|---0-0-0---2-2-2---3-3-3---2-2-2---0-0-0---3-3-3---2-2-2---2-2-2---2-2-2-|
|-----------------1-----------------------1-----------------------1-------|
|---------0-----------------------0-----------------------0---------------|
|-------------------------------------------------------------------------|
|-3-----------------------3-----------------------3-----------------------|
|-------------------------------------------------------------------------|


|---2-2-2---2-2-2---2-2-2---0-0-0---2-2-2---3-3-3---7-7-7---5-5-5---3-3-3-|
|-----------------1-----------------------1-------------------------------|
|---------0-----------------------0---------------7-------5-------4-------|
|-------------------------------------------------------------------------|
|-3-----------------------3-----------------------------------------------|
|-------------------------------------------------------------------------|


|---5-5-5---3-3-3---5-5-5---7-7-7---5-5-5---0-0-0---3-3-3---3-3-3---3-3-3-|
|-------------------------------------------------------------------------|
|-5-------4-------5-------7-------5-------------------------------0-------|
|-----------------------------------------5---------------2---------------|
|-------------------------------------------------3-----------------------|
|-------------------------------------------------------------------------|


|---3-3-3---3-3-3---3-3-3---3-3-3---3-3-3---3-3-3---3-3-3---3-3-3---3-3-3-|
|-----------------1-----------------------------------------------1-------|
|---------0-------------------------------0---------------0---------------|
|---------------------------------2---------------------------------------|
|-3-----------------------3-----------------------3-----------------------|
|-------------------------------------------------------------------------|


|---3-3-3---2-2-2---0-0-0-------------------------------------------0-0-0-|
|-----------------1---------3-3-3---1-1-1---0-0-0---1-1-1---3-3-3---------|
|---------0-------------------------------0-----------------------0-------|
|---------------------------------2-----------------------2---------------|
|-3-----------------------3-----------------------3-----------------------|
|-------------------------------------------------------------------------|


|---2-2-2---0-0-0---2-2-2---3-3-3---2-2-2---0-0-0-------------------------|
|-----------------1-----------------------1---------3-3-3---1-1-1---0-0-0-|
|---------0-----------------------0-------------------------------0-------|
|---------------------------------------------------------2---------------|
|-3-----------------------3-----------------------3-----------------------|
|-------------------------------------------------------------------------|


|-------------------0-0-0---2-2-2---0-0-0---2-2-2---3-3-3---2-2-2---0-0-0-|
|---1-1-1---3-3-3-------------------------1-----------------------1-------|
|-----------------0---------------0-----------------------0---------------|
|---------2---------------------------------------------------------------|
|-3-----------------------3-----------------------3-----------------------|
|-------------------------------------------------------------------------|


|---2-2-2---0-0-0---2-2-2---3-3-3---2-2-2---0-0-0---2-2-2---0-0-0---2-2-2-|
|-----------------1-----------------------1-----------------------1-------|
|---------0-----------------------0-----------------------0---------------|
|-------------------------------------------------------------------------|
|-3-----------------------3-----------------------3-----------------------|
|-------------------------------------------------------------------------|


|---3-3-3---2-2-2---0-0-0---2-2-2---0-0-0---2-2-2---3-3-3---2-2-2---0-0-0-|
|-----------------1-----------------------1-----------------------1-------|
|---------0-----------------------0-----------------------0---------------|
|-------------------------------------------------------------------------|
|-3-----------------------3-----------------------3-----------------------|
|-------------------------------------------------------------------------|


|---2-2-2---0-0-0---2-2-2---2-2-2---2-2-2---2-2-2---2-2-2-----2-------2---|
|-----------------0-----------------------4-----------------------4-------|
|---------0---------------------------------------------------------------|
|---------------------------------4-----------------------4---------------|
|-3-----------------------2-----------------------2-----------------------|
|-------------------------------------------------------------------------|


|-----2-------2-------2--------------------|
|---------4--------------------------------|
|----------------------------4-------------|
|-4---------------4---------4--------------|
|--------------------------2---------------|
|-------------------------2----------------|


|---0-0-0---2-2-2---3-3-3---3-3-3---3-3-3---3-3-3---3-3-3---3-3-3---3-3-3-|
|-------------------------------------------------------------------------|
|-----------------0-----------------------0-----------------------0-------|
|-------------------------------------------------------------------------|
|---------2-----------------------2-----------------------2---------------|
|-0-----------------------0-----------------------0-----------------------|


|---0-0-0---2-2-2---3-3-3--101010--101010--101010---8-8-8---8-8-8---8-8-8-|
|-----------------0-------------------------------------------------------|
|---------0-------------------------------0-----------------------5-------|
|---------------------------------9-----------------------7---------------|
|-------------------------------------------------------------------------|
|-0-----------------------0-----------------------0-----------------------|


|---7-7-7---7-7-7---7-7-7---7-7-7---7-7-7---7-7-7---0-0-0---2-2-2---3-3-3-|
|-------------------------------------------------------------------------|
|-----------------4-----------------------4-----------------------0-------|
|---------5-----------------------5---------------------------------------|
|---------------------------------------------------------2---------------|
|-0-----------------------0-----------------------0-----------------------|


|---3-3-3---3-3-3---3-3-3---3-3-3---3-3-3---3-3-3---0-0-0---2-2-2---3-3-3-|
|-----------------------------------------------------------------0-------|
|-----------------0-----------------------0---------------0---------------|
|-------------------------------------------------------------------------|
|---------2-----------------------2---------------------------------------|
|-0-----------------------0-----------------------0-----------------------|


|--101010--101010--101010---8-8-8---8-8-8---8-8-8---7-7-7---7-7-7---7-7-7-|
|-------------------------------------------------------------------------|
|-----------------0-----------------------5-----------------------4-------|
|---------9-----------------------7-----------------------5---------------|
|-------------------------------------------------------------------------|
|-0-----------------------0-----------------------0-----------------------|


|---7-7-7---7-7-7---7-7-7-|
|-------------------------|
|-----------------4-------|
|---------5---------------|
|-------------------------|
|-0-----------------------|


|---0-0-0---2-2-2---3-3-3---2-2-2---0-0-0---3-3-3---2-2-2---2-2-2---2-2-2-|
|-----------------1-----------------------1-----------------------1-------|
|---------2-----------------------2-----------------------2---------------|
|-0-----------------------0-----------------------0-----------------------|
|-------------------------------------------------------------------------|
|-------------------------------------------------------------------------|


|---2-2-2---2-2-2---2-2-2---0-0-0-----2-------3------2-------0--------2---|
|-----------------1-----------------------1-----------------------1-------|
|---------2-----------------------2-----------------------2---------------|
|-0-----------------------0-----------------------0-----------------------|
|-------------------------------------------------------------------------|
|-------------------------------------------------------------------------|


|-3---3---2---2---0---0---2---2---0---0---0---0---0----|
|-5---5---3---3---1---1---3---3---1---1---1---1---1----|
|-4---4---2---2---0---0---2---2---0---0---0---0---0----|
|-------------------------------------------------2----|
|-------------------------------------------------3----|
|------------------------------------------------------|


|-0-0-0-0-0-0-0-0-0-0-0-0-0-0-0-0-0-------------------------------|
|-1-1-1-1-1-1-1-1-1-1-1-1-1-1-1-1-1-------0-1-3---1p0-------------|
|-0-0-0-0-0-0-0-0-0-0-0-0-0-0-0-0-0-------------------2---0-------|
|-2-2-2-2-2-2-2-2-2-2-2-2-2-2-2-2-2-------------------------4-2-0-|
|-3-3-3-3-3-3-3-3-3-3-3-3-3-3-3-3-3-------------------------------|
|-----------------------------------------------------------------|


|------------------------------------0--------------0-------0-------0-|
|---------------------------------1-----1---------1-------1-------1---|
|------------------------------0-----------0----0-------0-------0-----|
|---------------------------4-----------------4-------4-------4-------|
|-3---2---3---2---3---2-----------------------------------------------|
|---------------------------------------------------------------------|


|-------0-------0-------0-------0-------0-------0---------|
|-----1-------1-------1-------1-------1-------1-----------|
|---0-------0-------0-------0-------0-------0-------------|
|-4---------------4---------------4---------------4-------|
|---------2---------------2---------------2---------------|
|---------------------------------------------------------|


|-0-0-0-0-0-0-0-0-0-0-0-0-0-0-0-0-0-----------------------------------|
|-1-1-1-1-1-1-1-1-1-1-1-1-1-1-1-1-1-------0-1-3---1p0-----------------|
|-0-0-0-0-0-0-0-0-0-0-0-0-0-0-0-0-0-------------------2---0-----------|
|-2-2-2-2-2-2-2-2-2-2-2-2-2-2-2-2-2-------------------------4-2---0---|
|-3-3-3-3-3-3-3-3-3-3-3-3-3-3-3-3-3-----------------------------------|
|---------------------------------------------------------------------|


|--------------------0--------------0-------0-------0-------0-------0-|
|-----------------1-----1---------1-------1-------1-------1-------1---|
|--------------0-----------0----0-------0-------0-------0-------0-----|
|-----------4-----------------4-------4-------4-------4---------------|
|-3---2-------------------------------------------------------2-------|
|---------------------------------------------------------------------|


|-------0-------0-------0-------0-------0-------0-------0----------0--|
|-----1-------1-------1-------1-------1-------1-------1---------1-----|
|---0-------0-------0-------0-------0-------0-------0--------0--------|
|-4---------------4---------------4---------------4-------------------|
|---------2---------------2---------------2---------------2-----------|
|---------------------------------------------------------------------|


|----------0-----0-----------0-----------0-----------------|
|-------1-----------1-----------1-----------1--------------|
|----0-----------------0-----------0-----------0-----------|
|-4-----------------------4--------------------------------|
|-------------2-----------------------2------------2-------|
|----------------------------------------------------------|


|-----0-------0-------0-------0-------0-------0-------0-------0---|
|-----0-------0-------0-------0-------0-------0-------0-------0---|
|-----0-------0-------0-------0-------0-------0-------0-------0---|
|---------4---------------4---------------4---------------4-------|
|-2---------------2---------------2---------------3---------------|
|-----------------------------------------------------------------|


|-----0-------0-------0-------0-------0-------0-------0-------0---|
|-----0-------0-------0-------0-------0-------0-------0-------0---|
|-----0-------0-------0-------0-------0-------0-------0-------0---|
|---------4---------------4---------------4---------------4-------|
|-2---------------2---------------2---------------3---------------|
|-----------------------------------------------------------------|


|-----0-------0-------0-------0-------0-------0-------0-------0---|
|-----0-------0-------0-------0-------0-------0-------0-------0---|
|-----0-------0-------0-------0-------0-------0-------0-------0---|
|---------4---------------4---------------4---------------4-------|
|-2---------------3---------------2---------------0---------------|
|-----------------------------------------------------------------|


|-----0-------0-------0-------0-------0-------0-------0-------0---|
|-----1-------1-------1-------1-------1-------1-------1-------1---|
|-----0-------0-------0-------0-------0-------0-------0-------0---|
|---------5---------------5---------------5---------------5-------|
|-3---------------3---------------3---------------5---------------|
|-----------------------------------------------------------------|


|-----0-------0-------0-------0-------0-------0-------0-------0---|
|-----1-------1-------1-------1-------1-------1-------1-------1---|
|-----0-------0-------0-------0-------0-------0-------0-------0---|
|---------5---------------5---------------5---------------5-------|
|-3---------------3---------------3---------------0---------------|
|-----------------------------------------------------------------|


|-------0-------0-------0-------0-------0-------0-------0-------0-|
|-----0-------0-------0-------0-------0-------0-------0-------0---|
|---0-------0-------0-------0-------0-------0-------0-------0-----|
|---------4---------------4---------------4---------------4-------|
|-2---------------2---------------2---------------3---------------|
|-----------------------------------------------------------------|


|-------0-------0-------0-------0-------0-------0-------0-------0-|
|-----0-------0-------0-------0-------0-------0-------0-------0---|
|---0-------0-------0-------0-------0-------0-------0-------0-----|
|---------4---------------4---------------4---------------4-------|
|-2---------------2---------------2---------------3---------------|
|-----------------------------------------------------------------|


|-------0-------0-------0-------0-------0-------0-------0-------0-|
|-----0-------0-------0-------0-------0-------0-------0-------0---|
|---0-------0-------0-------0-------0-------0-------0-------0-----|
|---------4---------------4---------------4---------------4-------|
|-2---------------3---------------2---------------0---------------|
|-----------------------------------------------------------------|


|-------0-------0-------0-------0-------0-------0-------0-------0-|
|-----1-------1-------1-------1-------1-------1-------1-------1---|
|---0-------0-------0-------0-------0-------0-------0-------0-----|
|---------5---------------5---------------5---------------5-------|
|-3---------------3---------------3---------------5---------------|
|-----------------------------------------------------------------|


|-------0-------0-------0-------0-------0-------0-------0-------0-|
|-----1-------1-------1-------1-------1-------1-------1-------1---|
|---0-------0-------0-------0-------0-------0-------0-------0-----|
|---------5---------------5---------------5---------------5-------|
|-3---------------3---------------3---------------0---------------|
|-----------------------------------------------------------------|


|-------0-------0-------0-------0-------0-------0-------0-------0-|
|-----1-------1-------1-------1-------1-------1-------1-------1---|
|---0-------0-------0-------0-------0-------0-------0-------0-----|
|---------5---------------5---------------5---------------5-------|
|-3---------------3---------------3---------------5---------------|
|-----------------------------------------------------------------|


|-------0-------0-------0-------0-------0-------0-------0-------0-|
|-----1-------1-------1-------1-------1-------1-------1-------1---|
|---0-------0-------0-------0-------0-------0-------0-------0-----|
|---------5---------------5---------------5---------------5-------|
|-3---------------3---------------3---------------0---------------|
|-----------------------------------------------------------------|


|---0-------------0-------2-------0-------2-------0-------0-------0-|
|-------0-------0-------0-------0-------0-------0-------0-------0---|
|---------0---0-------0-------0-------0-------0-------0-------0-----|
|-----------4---------------4---------------4---------------4-------|
|-2-----------------2---------------2---------------2---------------|
|-------------------------------------------------------------------|


|-------2-------0-------2-------0-------0-------0-------2-------0-|
|-----0-------0-------0-------0-------0-------0-------0-------0---|
|---0-------0-------0-------0-------0-------0-------0-------0-----|
|---------4---------------4---------------4---------------4-------|
|-2---------------2---------------2---------------2---------------|
|-----------------------------------------------------------------|


|-------2-------0-------0-------0-------2-------0-------2-------0-|
|-----0-------0-------0-------0-------0-------0-------0-------0---|
|---0-------0-------0-------0-------0-------0-------0-------0-----|
|---------4---------------4---------------4---------------4-------|
|-2---------------2---------------2---------------2---------------|
|-----------------------------------------------------------------|


|-------0-------0-------3-------0-------3-------0-------0-------0-|
|-----1-------1-------1-------1-------1-------1-------1-------1---|
|---0-------0-------0-------0-------0-------0-------0-------0-----|
|---------5---------------5---------------5---------------5-------|
|-3---------------3---------------3---------------3---------------|
|-----------------------------------------------------------------|


|-------3-------0-------3-------0-------0-------0-------2-------0-|
|-----1-------1-------1-------1-------0-------0-------0-------0---|
|---0-------0-------0-------0-------0-------0-------0-------0-----|
|---------5---------------5---------------4---------------4-------|
|-3---------------3---------------2---------------2---------------|
|-----------------------------------------------------------------|


|-------2-------0-------0-------0-------2-------0-------2-------0-|
|-----0-------0-------0-------0-------0-------0-------0-------0---|
|---0-------0-------0-------0-------0-------0-------0-------0-----|
|---------4---------------4---------------4---------------4-------|
|-2---------------2---------------2---------------2---------------|
|-----------------------------------------------------------------|


|-------0-------0-------3-------0-------3-------0-------0-------0-|
|-----1-------1-------1-------1-------1-------1-------1-------1---|
|---0-------0-------0-------0-------0-------0-------0-------0-----|
|---------5---------------5---------------5---------------5-------|
|-3---------------3---------------3---------------3---------------|
|-----------------------------------------------------------------|


|-------3-------0-------3-------0-------2-------2-------2-------2-|
|-----1-------1-------1-------1-------3-------3-------3-------3---|
|---0-------0-------0-------0-------2-------2-------2-------2-----|
|---------5---------------5-------0---------------0---------------|
|-3---------------3-----------------------------------------------|
|-----------------------------------------------------------------|


|-------2-------2-------2-------2-------2-------2-------2-------2-|
|-----3-------3-------3-------3-------3-------3-------3-------3---|
|---2-------2-------2-------2-------2-------2-------2-------2-----|
|-0---------------0---------------0---------------0---------------|
|-----------------------------------------------------------------|
|-----------------------------------------------------------------|


|-------2-------2-------2-------2-------2-------2-------2-------2-|
|-----3-------3-------3-------3-------3-------3-------3-------3---|
|---2-------2-------2-------2-------2-------2-------2-------2-----|
|-0---------------0---------------0---------------0---------------|
|-----------------------------------------------------------------|
|-----------------------------------------------------------------|


|-------2-------2-------2-------2-------4-------4-------4-------4-|
|-----3-------3-------3-------3-------5-------5-------5-------5---|
|---2-------2-------2-------2-------4-------4-------4-------4-----|
|-0---------------0-----------------------------------------------|
|-----------------------------------------------------------------|
|---------------------------------0---------------0---------------|


|-------4-------4-------4-------4-------4-------4-------4-------4-|
|-----5-------5-------5-------5-------5-------5-------5-------5---|
|---4-------4-------4-------4-------4-------4-------4-------4-----|
|-----------------------------------------------------------------|
|-------------------------7---------------7-----------------------|
|-0---------------0---------------0---------------0---------------|


|-------4-------4-------4-------4-------4-------4-------4-------4-|
|-----5-------5-------5-------5-------5-------5-------5-------5---|
|---4-------4-------4-------4-------4-------4-------4-------4-----|
|-----------------------------------------------------------------|
|-----------------------------------------------------------------|
|-0---------------0---------------0---------------0---------------|


|-------4-------4-------4-------4-------4-------4-------4-------4-|
|-----5-------5-------5-------5-------5-------5-------5-------5---|
|---4-------4-------4-------4-------4-------4-------4-------4-----|
|-----------------------------------------------------------------|
|-----------------------------------------------------------------|
|-0---------------0---------------0---------------0---------------|


|-------4-------4-------4-------4------------------|
|-----5---5---5---5---5----------5-----------------|
|---4-------4-------4-------------4----------------|
|----------------------------------6---------------|
|-----------------------------------7--------------|
|-0----------------------------------0-------------|

BUENO PUS ACABAMOS!!!!

Es una bella cancion solo que un poco dificil de tocar
pero no dejen de precticarla.

Cualquier queja o sugerencia ahi esta mi correo

SEE LATER!!!!!
Suggest correction
Give kudos to tab author, rate the tab!
1 2 3 4 5
comments
print report bad tab
guest
You may want to rate the tab now too:
select rating
Wanna post a correction for this tab? Suggest correction