Oops, an error
Loading. Please wait.

El Sureño Tab

26 views 1 this week
no commentswrite comment
1 2 3 4 5
3 more votes to show rating
add to favorites
×
Save as Personal and add changes to this tab that will be seen only by you. Learn more ›
×
You can save this tab as Personal to edit and correct it or add notes. All changes will be seen only by you. Learn more »
save as personal
new!
launch autoscroll
font size
0
reset
how to read this tab
guitar tuner
Autoscroll
slow
fast
+/-
esc
set tempo
stop
Muy buena y sencilla pieza clasica
aqui vamos!!!!

|--0-----------2-----------|--3-----------3-----------|
|--1-----------1-----------|--0-----------0-----------|
|--------------------------|--------------------------|
|--------------0-----------|------------------0-------|
|--3-----------------------|----------2---------------|
|--------------------------|--3-----------------------|

3
|--0-----------2-----------|--3-----------------------|
|--1-----------1-----------|--0-----------------------|
|--------------------------|--------------------------|
|--------------------------|--------------0-----------|
|--er--3-------er--0-------|--er------2-------2-------|
|--------------------------|------3-------------------|

5
|----------0-----------2---|--------------3-----------|
|------------------3-------|----------3-------3-------|
|------0-----------5-------|------4-----------4-------|
|--------------0-----------|--5-----------------------|
|--3-----------------------|--------------------------|
|--------------------------|--------------------------|

7
|------5---er------7---er--|--3-----------------------|
|--8-----------7-----------|--0-----------------------|
|--5-----------5-----------|--0-----------------------|
|--7-------er--0-------er--|------0---0---0---0---0---|
|--------------------------|--------------------------|
|--------------------------|--------------------------|

9
|--------------------------|--------------------------|
|--5-----------3-------1---|--0-----------------------|
|--5-----------4-------2---|--0-----------------------|
|--er--0-------------------|--er--0---0---0---0---0---|
|--------------------------|--------------------------|
|--------------------------|--------------------------|

11
|--12----------10------8---|--7-----------------------|
|--13----------12------10--|--8-----------------------|
|--------------------------|--------------------------|
|--er--0-------------------|--er--0---0---0---0---0---|
|--------------------------|--------------------------|
|--------------------------|--------------------------|

13
|--------------------------|--------------------------|
|--5-----------7-----------|--12----------8-----------|
|--5-----------7-----------|--12----------9-----------|
|--er--0---0-------0-------|--er--0---0-------0-------|
|--------------------------|--------------------------|
|--------------------------|--------------------------|

15
|--------------------------|--------------------------|
|--5-----------3-------1---|--0-----------------------|
|--5-----------4-------2---|--0-----------------------|
|--er--0---0-------0-------|--------------------------|
|--------------------------|--------------------------|
|--------------------------|--3-----------------------|

17
|--0-----------2-----------|--2-----------3-----------|
|--1-----------1-----------|----------0-------0-------|
|--0-----------2-----------|------0-----------0-------|
|--------------0-----------|--------------------------|
|--3-----------------------|--2-----------------------|
|--------------------------|--------------------------|

19
|--3-----------5-----------|--5-----------7-----------|
|--1-----------3-----------|----------5-------5-------|
|--2-----------5-----------|------7-----------7-------|
|--------------4-----------|--5-----------------------|
|--0-----------------------|--------------------------|
|--------------------------|--------------------------|

21
|--8-----------------------|--7-----------------------|
|--8-----------7-----------|--7-----------5-----------|
|--------------------------|--------------------------|
|--7-----------------------|--5-----------------------|
|--------------------------|--------------------------|
|--------------------------|--------------------------|

23
|--5-----------3---er--2---|--3-----------------------|
|--4-----------4-------1---|--0-----------------------|
|--------------------------|--0-----------------------|
|------------------0-------|--------------------------|
|--er--0---0---er----------|--------------------------|
|--------------------------|--------------------------|

25
|--0-----------------------|--------------------------|
|--1-----------4-----------|--3-----------------------|
|--------------5-----------|--0-----------------------|
|--------------4-----------|--------------------------|
|--3---0-------------------|--2-----------1-----------|
|--------------------------|--------------------------|

27
|--------------------------|--------------------------|
|--1-----------3-----------|--------------------------|
|--0-----------5-----------|--0-----------------------|
|--2-----------4-----------|--0-----------------------|
|--0-----------------------|--2-----------------------|
|--------------4-----------|--3-----------------------|

29 Pizzicato-----------------------------------------
|--------------------------|----------------------------|
|--------------------------|----------------------------|
|----------0-----------2---|--0---2p0-------0-----------|
|------2-------0---4-------|------------4-----------0---|
|--3-----------------------|--------------------2-------|
|--------------------------|----------------------------|

31
|--)0-----------)2-----------|--)3-----------------------||
|--(1-------er--(1-------er--|--(3-----------------------||
|--)0-----------)2-----------|--)4-----------qr------er--||
|--)2-----------(0-------er--|--(5-----------------------||
|--(3-------er---------------|--)5-----------------------||
|----------------------------|--(3-----------qr------er--||

Terminada

Cualquier comentario o sugerencia
ahi ta mi mail

SEE LATER!!!!
Suggest correction
Give kudos to tab author, rate the tab!
1 2 3 4 5
comments
print report bad tab
guest
Wanna post a correction for this tab? Suggest correction