Oops, an error
Loading. Please wait.

Estrellita Tab

76 views 1 this week
no commentswrite comment
1 2 3 4 5
3 more votes to show rating
add to favorites
launch autoscroll
font size
0
reset
how to read this tab
guitar tuner
×
Best way to learn
"Estrellita"
Autoscroll
slow
fast
+/-
esc
set tempo
stop
AQUI VAMOS!!!!!!!!

|-------------------4--7--|-----5--5)--------------------|
|-----------------5-------|-----7--7)--------------------|
|--------------6----------|-----6--6)--4--4--------------|
|-----4--6-----7----------|--------0)-----4--------0--4--|
|--7-----4--0-------------|--4------------5--4--2--------|
|-------------------------|------------------------------|

3
|-----------------------------|---------4--0--------------|
|--7--7)----------------------|--7--7)-----2-----2)-------|
|--7--7)---3-4----6-7---------|--7--7)-----2-----2)-------|
|-----6)----------6-7--4--2---|-----6)--------2--2)--4----|
|-----7)-2-4-5--4-------------|-----7)-----0-----4)-------|
|-----------------------------|---------------------------|

5
|--------------------5-9--|----4--7)--5--------------------|
|-----------------5-------|----6--7)--------------9--12-10-|
|--------------6----------|-------7)-----4)-------10-13-11-|
|-----4--6-----7----------|-------0)-----4)----------------|
|--7-----4--0-------------|-4------------5)--4--2----------|
|-------------------------|--------------------------------|


FIN!!

CUALQUIER DUDA O SUGERENCIA AHI TA MI MAIL

CHAO!!!!
7
----------------------5-------|-----------------------------|
|--9--10-7--7)-----5----------|--------7)-------------------|
|--10-11-7--7)-----7--------6-|-6)--7--7)-----2-----------2-|
|-----------6)--0-----7-------|-6)--0--6)--6--2--2-----2----|
|------------------------7----|-7)-----7)-----0-----4-----0-|
|-----------------------------|------------4----------------|

Repeat all 8 measures

17
|-------------------------|-------------------------|
|--------------7----5--2--|-----2-------------------|
|--7--6--3--4--7----6-----|--4-----2----------------|
|--7--6-------------------|--2--------2-------------|
|--------4--5----7--------|-----------4--2--0-----4-|
|-------------------------|--------------------0----|

19
|--------------------|------------------------|
|--------------------|------------------------|
|--7--6--3--4--7--6--|--4--7--6--2------------|
|--7--6--------6--6--|-----7--6--2------------|
|--------4--5--7--7--|--5--------0--0-----4---|
|--------------------|-----------------0------|

21
|-------------------5-9-|----4--7)--5--------------------|
|----------------5------|-6--6--7)--------------9--12-10-|
|-------------6---------|-------7)-----4)-------10-13-11-|
|----4--6-----7---------|-------0)-----4)----------------|
|-7-----4--0------------|--------------5)--4--2----------|
|-----------------------|--------------------------------|

23
|---------------------5-------|---------------------5)--||
|--9--10-7--7)-----5----------|--------7)-----------5)--||
|--10-11-7--7)-----7--------6-|-6)--7--7)-----------6)--||
|-----------6)--0-----7-------|-6)--0--6)--6--7-----7)--||
|------------------------7----|-7)-----7)-----7--7--7)--||
|-----------------------------|------------4--5---------||
Suggest correction
Give kudos to tab author, rate the tab!
1 2 3 4 5
comments
print report bad tab
guest
You may want to rate the tab now too:
select rating
Wanna post a correction for this tab? Suggest correction