Oops, an error
Loading. Please wait.

Etude In A Tab

67 views 1 this week
no commentswrite comment
1 2 3 4 5
3 more votes to show rating
add to favorites
launch autoscroll
font size
0
reset
how to read this tab
guitar tuner
×
Best way to learn
"Etude In A"
Autoscroll
slow
fast
+/-
esc
set tempo
stop
         Title : Etude in A-dur 
        Artist : Matteo Carcassi
Transcribed by:  Kevin J. Manges, braumstr@ 
                 (formerly braumeister@ and Kevinm2556@
Downloaded From: 
	     Note: Best Viewed in Courier or Courier New 10 pt.
                 See accompanying MIDI/MP3 file also at this site.
        Updated: 02/14/99 1109
==============================================================================
Legend
------
 Fret position shown above staff.
 Finger selection shown below staff.


                                  Etude in A-dur                                  


Transcribed by Kevin J. Manges                                  Matteo Carcassi


E||------------2--------0-----------------|
B||---------2--------2--------2--------2--|
G||*-----2--------2--------2--------2-----|
D||*--------------------------------------|
A||---0--------------------------0--------|
E||---------------------------------------|
         1  2  3


E|-----------2--------0-----------------|-----------5--------4-----------------|
B|--------3--------3--------3--------3--|--------3--------3--------3--------3--|
G|-----4--------4--------4--------4-----|-----4--------4--------4--------4-----|
D|--------------------------------------|--------------------------------------|
A|--------------------------------------|--------------------------------------|
E|--4--------------------------4--------|--0--------------------------0--------|
    3  4  2  1                                2  1  4        3


    V--------------------------------|    II--------------------------------|
E|-----------7--------5-----------------|-----------4--------2-----------------|
B|--------5--------5--------5--------5--|--------2--------2--------2--------2--|
G|-----6--------6--------6--------6-----|-----2--------2--------2--------2-----|
D|--------------------------------------|--------------------------------------|
A|--0--------------------------0--------|--0--------------------------0--------|
E|--------------------------------------|--------------------------------------|
       2  1  4        1                       1  1  4


                                          II--------------------------------|
E|-----------2--------0-----------------|--------------------------------------|
B|--------2--------2--------2--------2--|-----------5-----------------4--------|
G|-----0--------0--------0--------0-----|--------2--------2--------2--------2--|
D|--------------------------------------|-----4--------4--------4--------4-----|
A|--1--------------------------1--------|--2-----------------2-----------------|
E|--------------------------------------|--------------------------------------|
    1     3  4        0                    1  3  1  4                 4

                                                                        

E|-----------0------------------||------------2--------0-----------------|
B|--------0--------0------------||---------0--------0--------0--------0--|
G|-----1--------1--------------*||*-----1--------1--------1--------1-----|
D|--------------------2--------*||*-----------------------------2--------|
A|------------------------------||---------------------------------------|
E|--0---------------------------||---0-----------------------------------|
       1              2                 1     3                 2


   II-----------------------------------------------------------------------|
E|-----------4--------2-----------------|-----------3--------2-----------------|
B|--------2--------2--------2--------2--|--------2--------2--------2--------2--|
G|-----2--------2--------2--------2-----|-----3--------3--------3--------3-----|
D|-----------------------------2--------|-----------------------------2--------|
A|--------------------------------------|--------------------------------------|
E|--0-----------------------------------|--0-----------------------------------|
       1  1  4        1        1              2     3

                                                                              

E|-----------5--------4-----------------|-----------5--------4-----------------|
B|--------3--------3--------3--------3--|--------3--------3--------3--------3--|
G|-----4--------4--------4--------4-----|-----4--------4--------4--------4-----|
D|-----------------------------2--------|--3--------------------------3--------|
A|--------------------------------------|--------------------------------------|
E|--0-----------------------------------|--------------------------------------|
       3  2  4        4        1           1  3  2  4

   II-----------------------------------------------------------------------| 
E|-----------5-----------------5-----2--|-----------7-----------------8--------|
B|--------2--------2--------2-----2-----|--------7--------7--------7--------7--|
G|-----2--------2--------2--------------|-----7--------7--------7--------7-----|
D|--4-----------------4-----------------|--0-----------------0-----------------|
A|--------------------------------------|--------------------------------------|
E|--------------------------------------|--------------------------------------|
    3  1  1  4                                1  1  1                 2

   IX----------------|
E|------------9--------------------0--|-----------2--------0-----------------|
B|---------9---------9----------0-----|--------2--------2--------2--------2--|
G|-----10--------10-------------------|-----2--------2--------2--------2-----|
D|----------------------11--12--------|--------------------------------------|
A|------------------------------------|--0--------------------------0--------|
E|--9---------------------------------|--------------------------------------|
    1  2   1  1          3  4               1  2  3

                                                                              
E|-----------5--------4-----------------|-----------2--------0-----------------|
B|--------3--------3--------3--------3--|--------0--------0--------0--------0--|
G|-----4--------4--------4--------4-----|-----1--------1--------1--------1-----|
D|--------------------------------------|--------------------------------------|
A|--0--------------------------0--------|--0--------------------------0--------|
E|--------------------------------------|--------------------------------------|
       2  1  4        3                       1     3


    V--------------------------------|
E|-----------7--------5-----------------|-----------7--------6-----------------|
B|--------5--------5--------5--------5--|--------5--------5--------5--------5--|
G|-----6--------6--------6--------6-----|-----6--------6--------6--------6-----|
D|-----------------------------7--------|--4--------------------------4--------|
A|--0-----------------------------------|--------------------------------------|
E|--------------------------------------|--------------------------------------|
       2  1  4        1        3           1  3  2  4        4


   VII--------------------------------|                                        
E|-----------9--------7--------10-------|-----------1-----------------0-------|
B|--------7--------7--------7---------7-|--------0--------0--------3--------0-|
G|-----7--------7--------7---------7----|-----2--------2--------1--------1----|
D|--0-----------------------------------|--1-----------------2----------------|
A|--------------------------------------|-------------------------------------|
E|--------------------------------------|-------------------------------------|
       1  1  3        1        4           1  3     2        2  1  4


    V-----------------|
E|-----------5------------------||
B|--------5--------5------------||
G|-----6--------6--------------*||
D|--------------------7--------*||
A|--0---------------------------||
E|------------------------------||
       2  1  1        3
Suggest correction
Give kudos to tab author, rate the tab!
1 2 3 4 5
comments
print report bad tab
guest
You may want to rate the tab now too:
select rating
Wanna post a correction for this tab? Suggest correction