Oops, an error
Loading. Please wait.

Etudem In C Minor Tab

151 views 1 this week
no commentswrite comment
1 2 3 4 5
3 more votes to show rating
add to favorites
launch autoscroll
font size
0
reset
how to read this tab
guitar tuner
Autoscroll
slow
fast
+/-
esc
set tempo
stop
Help us to improve Ultimate-Guitar.com Take our survey!
×
Date: Sun, 23 Nov 1997 10:34:47 -0800
From: Michael and Victor Zefas <mellowg@
Subject: classical TAB:  Dionisio Aguado Etude in C Major

  q     q    q     q     q     q     q     q     q     q     q     q


e:---------|----------|-----------|-----------|--0-----0--|-----------|
B:1-----1--|-0-----0--|--3-----3--|--1-----1--|--1-----1--|--3-----3--|
G:0-----0--|-0-----0--|-----------|-----------|--2-----2--|--2-----2--|
D:2-----2--|-0-----0--|--3-----3--|--2-----2--|-----------|--3--------|
A:---------|----------|--2-----2--|--3-----3--|-----------|-----------|
E:---------|----------|-----------|-----------|-----------|--------1--|

    q     q     q.                  (simile)


e:-----------|-------------------||------------|-----------|--2-----2--|
B:--0-----0--|--1.---------------||---5-----5--|--3-----3--|--1-----1--|
G:--0--------|------(8th-rest)--*||*--0-----0--|--0-----0--|-----------|
D:--------3--|--2.--------------*||*-----------|-----------|--------0--|
A:-----------|--3.---------------||---3-----3--|--2-----2--|--0--------|
E:--3-----3--|-------------------||------------|-----------|-----------|

                                                    q.
                                                  (end of first part)  (

e:--3-----3--|--1-----1--|--0-----0--|-----------|-------------------|||
B:--0-----0--|--0-----0--|--1-----1--|--3-----0--|--1.---------------|||
G:--------0--|--1-----1--|--2--------|--2-----0--|------(8th-rest)--*|||
D:-----------|-----------|--------2--|--3--------|--2.--------------*|||
A:-----------|-----------|-----------|-----------|--3.---------------|||
E:--3--------|-----------|-----------|--------3--|-------------------|||

     E  E  E  E  E  E  E  E  E  E  E  E  E  E  E  (simile
  start of 2nd part)

e:---------------------------|--------------------------|
B:------1-----1-----1-----1--|-----0-----0-----0-----0--|
G:*--------0-----------0-----|--------0-----------0-----|
D:*--------------2==========>|--0==========>0==========>|
A:---3==========>------------|--------------------------|
E:---------------------------|--------------------------|
                                   ======= means let ring

  )


e:--------------------------|--------------------------|
B:-----3-----3-----3-----3--|-----1-----1-----1-----1--|
G:--------0-----------0-----|--------0-----------0-----|
D:--------------------------|--------------------------|
A:--2==========>------------|--3-----------3-----------|
E:--------------3==========>|--------------------------|
                              (sim>


e:-----0-----0-----0-----0--|--------------------------|
B:--------1-----------1-----|-----3-----3-----3-----3--|
G:--2-----------2-----------|--------2-----------2-----|
D:--------------------------|--3-----------------------|
A:--------------------------|--------------------------|
E:--------------------------|--------------1-----------|


                                           q
e:--------------------------|----------------------------------||
B:-----0-----0-----0-----0--|-----1-----1----------------------||
G:--------0-----------------|------------------(quarter rest)-*||
D:--------------------3-----|--------2------------------------*||
A:--------------------------|--3-----------3-------------------||
E:--3-----------3-----------|----------------------------------||


                                                         


e:---------------------------|--------------------------|
B:------5-----5-----5-----5--|-----3-----3-----3-----3--|
G:*--------0-----------0-----|--------0-----------0-----|
D:*--------------------------|--------------------------|
A:---3-----------3-----------|--2-----------2-----------|
E:---------------------------|--------------------------|


e:-----2-----2-----2-----2--|-----3-----3-----3-----3--|
B:--------1-----------1-----|--------0-----------0-----|
G:--------------------------|--------------0-----------|
D:--------------0-----------|--------------------------|
A:--0-----------------------|--------------------------|
E:--------------------------|--3-----------------------|


e:-----1-----1-----1-----1--|-----0-----0-----0-----0--|
B:--------0-----------0-----|--------1-----------1-----|
G:--1-----------1-----------|--2-----------------------|
D:--------------------------|--------------2-----------|
A:--------------------------|--------------------------|
E:--------------------------|--------------------------|


                                             

                                           q
e:--------------------------|-----------------------------|
B:-----3-----3-----0-----0--|-----1-----------------------|
G:--------2-----------0-----|-----------0-----1/4 rest----|
D:--3-----------------------|--------2--------------------|
A:--------------------------|--3-----------3--------------|
E:--------------3-----------|-----------------------------|
Suggest correction
Give kudos to tab author, rate the tab!
1 2 3 4 5
comments
print report bad tab
guest
You may want to rate the tab now too:
select rating
Wanna post a correction for this tab? Suggest correction