Oops, an error
Loading. Please wait.

Fernando Sor - Etudia 35 - 1 Tab

35 views 1 this week
no commentswrite comment
1 2 3 4 5
2 more votes to show rating
add to favorites
launch autoscroll
font size
0
reset
how to read this tab
guitar tuner
×
Best way to learn
"Fernando Sor - Etudia 35 - 1"
Autoscroll
slow
fast
+/-
esc
set tempo
stop
e -----------0--3--0-----------1-----1-----------------------0--3--0--------
B --1-----1-----------1-----------3-----0--3--------1-----1-----------2-----
G -----0-----------------0--2-----------0-----0--------0--------2--------0--
D -----------------------2--3-----------------------2--------------------2--
A --3--------------------------------------------3--------------------------
E --------------------------------------------------------------------------


e -----------0--------------------0-----------------------0-----------------
B --2--3--------1-----------3-----------3-----------3-----------3-----------
G --3-----0--------0-----------0-----0-----0--0--0-----0-----0-----0--0--0--
D --------------------2-----------------------------------------------------
A --------------3--------3--2-----3-----2-----------2-----3-----2-----------
E --------------------------------------------------------------------------


e --------------------0-----------------------------3-----0-----1-----------
B --0-----1-----3-----------0--0--1-----------------------------------3-----
G -----0-----0-----0--0--0-----------2--0--0--0--0-----0-----0-----0-----0--
D --------0-----------------0-----0-----------------2-----------0-----------
A --3-----------2-----3-----------------------------------3-----------2-----
E --------------------------------------3-----------------------------------


e --0-----------------------3-----0-----1-----------0-----------------------
B --------1-----0-----------------------------3-----------1-----0-----------
G -----0-----0-----0--0--0-----0-----0-----0-----0-----0-----0-----0--------
D --------2-----0-----------2-----------0-----------------------------3--0--
A --3-----------------------------3-----------2-----3-----------3-----------
E --------------------------------------------------------------------------


e -----------0--3--0-----------1-----------------------------0--0--------1--
B --1-----1-----------1-----------3--1--0--------0--1-----1-----------3-----
G -----0-----------------0--2-----------0--0--2--------0-----------2--------
D --------------2-----------3-----------------3-----2-----------3-----------
A --3-----------------------------------------------------------------------
E --------------------------------------------------------------------------


e --0--------------------||
B -----1--3--0--1--------||
G --0--------------0-----||
D -----------------2-----||
A --------------3-----3--||
E --------3--------------||
Suggest correction
Give kudos to tab author, rate the tab!
1 2 3 4 5
comments
print report bad tab
guest
You may want to rate the tab now too:
select rating
Wanna post a correction for this tab? Suggest correction