Oops, an error
Loading. Please wait.

Fernando Sor - Opus 44, Andantino 3 Tab

85 views 1 this week
no commentswrite comment
1 2 3 4 5
3 more votes to show rating
add to favorites
launch autoscroll
font size
0
reset
how to read this tab
guitar tuner
×
Best way to learn
"Fernando Sor - Opus 44, Andantino 3"
Autoscroll
slow
fast
+/-
esc
set tempo
stop
Indicaciones jeje ^ quiere decir que es ligado ósea que jales la cuerda
O la pises fuertemente. En general la rola lleva un rimo constante pero
No se como pasar el ritmo exacto en tablatura así que pos mas o menos es
Así. (Para mejores resultados busquen la en partituras)
Cada guión es el espacio que hay de negra a negra si no hay guión es que
Es fusa.
Si no entienden algo mandenme un mail a vomitoanarquico@ o
A naco3434@

|--------|----------|-----0-|-------|---0-3-|
|------1-|--1-^o--3-|-1-----|-3-----|-1-----|
|----0---|----------|---0---|---0---|-------|
|--2-----|--0-----3-|-2-----|-----3-|-2-----|
|--3-----|----------|-----3-|-2-----|-------|
|--------|----------|-------|-------|-------|

|-----1-|-----0-|---------|-------|--------|
|---3---|-0-1---|-3----0--|-----1-|-1-^0-3-|
|-2-----|-0-----|-0-----0-|-o-----|-----0--|
|-3-----|--42---|---------|---2---|-0----3-|
|-------|-----3-|---------|-3-----|--------|
|-------|-------|---3-----|-------|--------|

|------0-|--------|-0-----|-----0-|-1-----|
|-3^1-1--|-3----4-|---0-1-|---3---|-----0-|
|----0---|---0----|-------|-2-----|---2-0-|
|-2------|--------|---0-2-|-3---2-|-0-----|
|--------|-2------|-3-----|-------|-------|
|------3-|--------|-------|-------|-------|

|-------|-------|---0------|-0------|---------|
|-1-----|-3-----|----------|----3---|-1--0--0-|
|----0--|---0-0-|-0--------|------2-|------0--|
|---2---|-------|----------|--------|-----0---|
|-3---3-|-2-----|-3----20--|--------|---------|
|-------|-------|--------3-|-2------|-3-------|
          Este parte esta medio
          Confusa el 'paréntesis'
          Quiere decir que se debe
          Sostener ese tono mientras
          Dure el DO de la quinta
          Cuerda osea el DO grave.
|------3-|(3)-2^0---|--------|---------|-------|
|-3------|-------1--|--031---|---------|-----1-|
|----0---|--------2-|-0---2--|-0-------|---0---|
|--------|----------|-0----4-|-------3-|-2-----|
|-2------|-3--------|--------|---------|-3-----|
|--------|----------|--------|----3----|-------|

|--------|------0-|-------|---0-3-|---1^0----|
|-1^0--3-|-3^1----|-3-----|-1-----|------3^1^|
|----0---|----0---|---0---|-------|-2--------|
|-0----3-|-2------|-----3-|-2-----|-3--------|
|--------|------3-|-2-----|-------|----------|
|--------|--------|-------|-------|----------|

|-----0-|--------|-------|---------|-------0-|
|-0-1---|-3---0--|-----1-|-1-^0-03-|-3-^1-1--|
|-0-----|------0-|-0-----|-----0---|-----0---|
|--42---|--------|---2---|-0----3--|-2-------|
|-----3-|-2------|-3-----|---------|------3--|
|-------|---3----|-------|---------|---------|

El último compás se escucha
Mejor si se hace con armónico
Y un rasgueo al final.

|---------|-0-----|------0-|-3^1----|-------|
|-3-----4-|---0-1-|--0123--|------0-|-1-----|
|----0----|-------|-2------|----2-0-|--0-0--|
|---------|---0-2-|-3------|-0------|---2---|
|-2-------|-3-----|--------|--------|-3---3-|
|---------|-------|--------|--------|-------|
Suggest correction
Give kudos to tab author, rate the tab!
1 2 3 4 5
comments
print report bad tab
guest
You may want to rate the tab now too:
select rating
Wanna post a correction for this tab? Suggest correction