Oops, an error
Loading. Please wait.

Francisco Tarrega - Adelita Tab

325 views 3 this week
no commentswrite comment
1 2 3 4 5
2 more votes to show rating
add to favorites
×
Save as Personal and add changes to this tab that will be seen only by you. Learn more ›
×
You can save this tab as Personal to edit and correct it or add notes. All changes will be seen only by you. Learn more »
save as personal
new!
launch autoscroll
font size
0
reset
how to read this tab
guitar tuner
Autoscroll
slow
fast
+/-
esc
set tempo
stop
Adelita
Francisco Tarrega

 3/4


    E7                         D
E-|-12-h11-p7-------------|---10-h8----------------|
B-|-------------8---------|---------7--------------|
G-|-------------9---------|-------------9----------|
D-|-----------------------|------------10----------|
A-|-----------------------|------------------------|
E-|--0--------------------|----0-------------------|


3
     G
E-|--8-h7-----------------|------------------0---7-|
B-|-------------------8---|----7 h8 p7--5--0---8---|
G-|-------------8-----8---|------------------------|
D-|-------------------7---|------------------------|
A-|-----------------------|------------------------|
E-|--7----------------7---|----0-------------------|


5
     E7                        D      
E-|--12 p11 7-------------|---10 p8----------------|
B-|-----------------------|---------7--------------|
G-|--------------8--------|--------------9---------|
D-|--------------9--------|--------------10--------|
A-|-----------------------|----0-------------------|
E-|--0--------------------|------------------------|


7
      G                       Em
E-|---8-p7----------------|------------------------|
B-|-----------------8-----|----5-------------------|
G-|-------8---------8-----|----4-------------------|
D-|-----------------7-----|----5-------------------|
A-|-----------------------|------------------------|
E-|---7-------------7-----|----------0-------------|


9
      E
E-|---4-------7-----------|---4-------7------------|
B-|--------5-------5--7---|--------5------5--7-----|
G-|--------4-------6------|--------4------6--------|
D-|--------6--------------|--------6---------------|
A-|----------------0------|---------------0--------|
E-|---0-------------------|---0--------------------|


11
     A7
E-|--4-7-12-11-11h12p11-9-|-9h10p9-7---------------|
B-|--5-------- -----------|-----------10p7---------|
G-|--4----------------9---|------8---------8-------|
D-|-----------------------|------7------------9----|
A-|--0----------------9---|------------------------|
E-|-----------------------|------7-----------------|


13
     E
E-|-------0-----0---------|-------4----------------|
B-|-------0--0--2---------|----------4-------------|
G-|-----------------------|-1--4-------9h11p9------|
D-|--6----------2--4------|-----------------8---8--|
A-|-------------0---------|------------------------|
E-|--0--------------------|-0---------------8------|


15
                   B7         E
E-|-----------------------|---0--------------------|
B-|----------------4------|---0--------------------|
G-|---------6--4---2------|---1--------------------|
D-|----9----7--6---4------|---2--------------------|
A-|----------------2------|------------------------|
E-|----7------------------|-------0----------------|


17

1
    E7                         D
E-|-12-h11-p7-------------|---10-h8----------------|
B-|-------------8---------|---------7--------------|
G-|-------------9---------|-------------9----------|
D-|-----------------------|------------10----------|
A-|-----------------------|------------------------|
E-|--0--------------------|----0-------------------|


19
     G
E-|--8-h7-----------------|------------------0---7-|
B-|-------------------8---|----7 h8 p7--5--0---8---|
G-|-------------8-----8---|------------------------|
D-|-------------------7---|------------------------|
A-|-----------------------|------------------------|
E-|--7----------------7---|----0-------------------|


21
     E7                        D      
E-|--12 p11 7-------------|---10 p8----------------|
B-|-----------------------|---------7--------------|
G-|--------------8--------|--------------9---------|
D-|--------------9--------|--------------10--------|
A-|-----------------------|----0-------------------|
E-|--0--------------------|------------------------|


23
      G                       Em
E-|---8-p7----------------|------------------------|
B-|-----------------8-----|----5-------------------|
G-|-------8---------8-----|----4-------------------|
D-|-----------------7-----|----5-------------------|
A-|-----------------------|------------------------|
E-|---7-------------7-----|----------0-------------|


T
aqui esta otra mas
Suggest correction
Give kudos to tab author, rate the tab!
1 2 3 4 5
comments
print report bad tab
guest
Wanna post a correction for this tab? Suggest correction