Oops, an error
Loading. Please wait.

Fuga Al Aire Español Tab

7 views 1 this week
no commentswrite comment
1 2 3 4 5
3 more votes to show rating
add to favorites
launch autoscroll
font size
0
reset
how to read this tab
guitar tuner
Autoscroll
slow
fast
+/-
esc
set tempo
stop
Help us to improve Ultimate-Guitar.com Take our survey!
×
AQUI VA!!!!

e||-5---0-1-3---1-0-|-1-0-1-----------|-1-------0-------|-0-------0-------|
B||-----------------|-------3-2---0-2-|-3---------------|-1-------0-------|
G||-----------------|-----------2-----|-----------------|-----------------|
D||-----------------|-0---------------|-0---------------|-----------------|
A||-----------------|---------0-------|-----0-2-3---2---|-0-2-3-0---------|
E||-----------------|-----------------|---------------4-|---------4-0-2-4-|


5  |   .   |   .     |   .   |   .     |   .   |   .     |   .   |   .
e|-0-----------5-3-|---0-1-----------|-1---------------|-0-------4-------|
B|-1---------------|-3-----3-2---0-2-|-3-----0-1---1-0-|-1---------------|
G|---------0-------|-----------2-----|-----2---2-------|-----------------|
D|-----2-3-----3-2-|-0---0-----------|-0---------------|-------0-2-0-----|
A|-0---------------|---3---1-0-------|-----------------|-0-2-3-------3-2-|
E|-----------------|-----------------|-----------------|-----------------|


9  |   .   |   .     |   .   |   .     |   .   |   .     |   .   |
e|-5-7-8-5-4-0-2-4-|-5---0-1-3---1-0-|-1---------10--9-|-10------8---8-7-|
B|-----------------|-----------------|-3-----------9---|----10-11--------|
G|-----------------|-----------------|-------0-10------|-10------9-------|
D|-----------------|-----------------|-0-2-3-----------|-0---------------|
A|-0-------2-------|-3-------2-------|-----------------|---------0-------|
E|-----------------|-----------------|-----------------|-----------------|


13 |   .   |   .     |   .   |   .     |   .   |   .     |   .   |   .
e|-5-7-8-5-4-0-2-4-|-5---0-2-3---3-2-|-0-2-3-0---------|-3---3---1-------|
B|---------0-------|---------0-------|-1-------4---2-4-|-5---0-2-3---3-1-|
G|-5---------------|-5---------------|---------4-4-----|-----------------|
D|-----------------|---------2-------|-----------------|-2-------0-------|
A|-0---------------|-0---------------|-0-------2-------|-----------------|
E|---------0-------|-----------------|-----------------|-----------------|


17 |   .   |   .     |   .   |   .     |   .   |   .     |   .   |   .
e|-3-------1-------|-0-----------3---|-1-0-1-----------|-5-7-8-5-4-0-2-4-|
B|---------3-------|-1-----------0-2-|-------3-2---0-2-|-----------------|
G|-0---------------|-2-------0-------|-----------2-----|-----------------|
D|-2-------0-------|----2--3-----2---|-0---------------|-0---------------|
A|-----2-3-----3-2-|-0---------------|---------0-------|---------2-------|
E|-----------------|-----------------|-----------------|-----------------|


21 |   .   |   .     |   .   |   .     |   .   |   .     |   .   |   .
e|-0-------0-------|-0---------------|-----------------|-----------0-1-3-|
B|-1-0-1---0-------|-----------------|-----------------|---------3-------|
G|-------2-1-----1-|-2-------0-------|-------0-2-------|-0---------------|
D|-----------2-4---|-----2-3-----3-2-|-0-2-3-------2-3-|-5---3-2-0-------|
A|-0---------------|-0---------------|-----------------|-----------------|
E|---------0-------|-----------------|-----------------|-----------------|


25 |   .   |   .     |   .   |   .
e|-5---0-1-3---1-0-|-1---------------||
B|-5-------2-------|-3---------------||
G|-----------------|-2---------------||
D|-----------------|-0---------------||
A|-4-------0-------|-----------------||
E|-----------------|-----------------||

FIN!!!

DUDA O COMENTARIO AMI MAIL!!!!

CHAO!!
Suggest correction
Give kudos to tab author, rate the tab!
1 2 3 4 5
comments
print report bad tab
guest
You may want to rate the tab now too:
select rating
Wanna post a correction for this tab? Suggest correction