Oops, an error
Loading. Please wait.

Fugue En Cm Tab

11 views 1 this week
no commentswrite comment
1 2 3 4 5
3 more votes to show rating
add to favorites
launch autoscroll
font size
0
reset
how to read this tab
guitar tuner
×
Best way to learn
"Fugue En Cm"
Autoscroll
slow
fast
+/-
esc
set tempo
stop
|-----------------------------|-----------------------------------|
|-1-0-1-------------------3---|-----1-0-1---3---------------------|
|---------0---1---1-0-1-------|-0-----------------0-1-------0-----|
|-----------------------------|-----------------3-------------3---|
|-----------------------------|-----------------------------------|
|-----------------------------|-----------------------------------|
  |=| |___|   |___|=| |___|     |___|=| |___|   |=| |       |=|


|-----3-2-3-----------3-2-3---5---|-----3-2-3---5-------------------|
|---1-0-------1---4---4---3-------|-3-----------------3-4-------3---|
|-------2-0-------------------5---|-3---2---3---5---5---0---2-----5-|
|-1---------3-1-0-----------------|-----------------4-----------4---|
|-----------------3---------------|---------------------------------|
|---------------------------------|---------------------------------|
  |=|=|=| |=|=|=| |___|=| |___|     |___|=| |___|   |=| |___|   |=|


|---------------------------------|-3-1-3---------------------------|
|-----4-3-4-----------6-4-6-------|---------0---1---3---4---6-------|
|-3-----------0---1-----------1-3-|-3---------0-1---------------5-4-|
|-5-----------0-1-3---6-----0-3-5-|-------1-3-------3---1---0-------|
|-----------3---------------------|---------------------------------|
|---------------------------------|---------------------------------|
  |___|=| |=|=|=| |___|=| |=|=|=|   |=|=|=| |=| |___|___|___|   |=|


|---------------------4---3---1---|---------------------------------|
|-----4-3-1-----------6---4---3---|-4---3---4---6---0---1---3-------|
|-5---------2-1-0-----------------|-----1---0-------0-----------0---|
|-----------------3---------------|-------------3-------3-1-3---1---|
|---------------------------------|---------------------------------|
|---------------------------------|---------------------------------|
Suggest correction
Give kudos to tab author, rate the tab!
1 2 3 4 5
comments
print report bad tab
guest
You may want to rate the tab now too:
select rating
Wanna post a correction for this tab? Suggest correction