Oops, an error
Loading. Please wait.

George Moustaki - Natalia Tab

244 views 1 this week
no commentswrite comment
1 2 3 4 5
3 more votes to show rating
add to favorites
launch autoscroll
font size
0
reset
how to read this tab
guitar tuner
×
Best way to learn
"George Moustaki - Natalia"
Autoscroll
slow
fast
+/-
esc
set tempo
stop
Esta canción es muy paecida al Romance anónimo, no se si habrá mucha
gente que la conozca, pero bueno, ahi va eso


(PRIMERA PARTE)
1 -7---8-7---8-10---12-10---8-7---8-7-5-3-5---7-5---7-5-3---5-7-5-
2 --0-0---0-0----0-0-----0-0---0-0-0-0-0-0-4-4-4-4-4-----0-0-0-0-0
3 ---0-----0------0-------0-----0-----------4-----4-------0-------
4 --------------0-------0-----------------4-----4-----------------
5 ----------------------------------------------------------------
6 -0-----0--------------------0-------------------------0---------


1 -3-2---3-2---3-2-----0----0----0----2-7
2 --0-0-0-0-0-0-------0----1----1----0-0-
3 -----2-----2-------0----2----2----2---- todo sto se hace dos 
4 ------------------2----3----2----1-----        veces
5 ---2-----2-------2----3----0----2------
6 ----------------0---------------------0


Esta es la primera parte de la canción, se repite dos veces


(SEGUNDA PARTE)
1 -0---2-3-2-0-2---3-2---3-3---5-7-5-3-5---7-5---7-12---14-15-14-12-
2 --0-0-0-0-0-0-3-3-3-3-3-0-0-0-0-0-0-0-4-4-4-4-4-0--0-0--0--0--0--0
3 ---0-----------2-----2-----0-----------4-----4------0-------------
4 -------------0-----0-----------------4-----4----------------------
5 ------------------------------------------------------------------
6 -0-----------------------3------------------------0---------------


1 -11------12--11------12--12---12-8---8-----0-----2-7-
2 ---12--12--12--12--12--12--0-0--0-7-7-7---1-1---0-0--   
3 -----11----------11---------0------7-----2-----2-----    
4 ---------------------------------7------2-----1------    
5 --0-----------0------------------------0-----2-------   
6 --------------------------0------------------------0-

y despues de esto vuelve a hacer la primera parte otra vez


el orden sería pues: PRIMERA PARTE, PRIMERA PARTE, SEGUNDA PARTE Y 
PRIMERA PARTE

Bueno pos espero que les guste, si tienen alguna duda me mandais
a mi correo cualquier sugerencia, critica, felicitación...etc
Un saludo a todos 
Lucas Rubio
Suggest correction
Give kudos to tab author, rate the tab!
1 2 3 4 5
comments
print report bad tab
guest
You may want to rate the tab now too:
select rating
Wanna post a correction for this tab? Suggest correction