Oops, an error
Loading. Please wait.

Giuliani - Estudio No. 3 Tab

28 views 1 this week
no commentswrite comment
1 2 3 4 5
2 more votes to show rating
add to favorites
launch autoscroll
font size
0
reset
how to read this tab
guitar tuner
×
Best way to learn
"Giuliani - Estudio No. 3"
Autoscroll
slow
fast
+/-
esc
set tempo
stop
Correción a la que enviado 30/11/04.

e----------------|----------------|--0-----1----0--|----------------|--1---------3--|
b--1---------1---|--3----------3--|--1-----3----1--|--3-------------|------------0--|
g----------------|--0----------0--|----------------|--0-------------|--2------------|
D--2---------2---|----------------|----------------|----------------|---------------|
A----------------|----------------|----------------|----------------|---------------|
E----------------|----------------|----------------|----------------|---------------|


e--0-------------|----------------|----------------|-------------0--|---------------|
b--1----------1--|--3----------0--|--1-------------|--3----------1--|--3------------|
g-------------2--|-------------0--|----------------|--0-------------|--0------------|
D----------------|--3-------------|--2-------------|----------------|---------------|
A----------------|----------------|----------------|----------------|---------------|
E----------------|----------------|----------------|----------------|---------------|


e-------1-----0--|--------|--0-----------|--------------|--------------|------------|
b--3----------1--|--3-----|--1--------3--|--1--------3--|--1--------0--|--1---------|
g--0-------------|--0-----|-----------1--|--2-----------|--0--------0--|------------|
D----------------|--------|--------------|-----------3--|--------------|--2---------|
A----------------|--------|--------------|--------------|--------------|------------|
E----------------|--------|--------------|--------------|--------------|------------|


e--------------------|--------------------|--0-----1-----0-----|--------------------|
b--1-----------1-----|--3-----------3-----|--------------------|--3-----------------|
g-----0--0--0-----0--|-----0--0--0-----0--|-----0-----0-----0--|-----0--0--0--0--0--|
D--2-----------2-----|--------------------|--------0-----------|--------------------|
A--------------------|--2-----------2-----|--3-----------3-----|--2-----------------|
E--------------------|--------------------|--------------------|--------------------|


e--1-----------3-----|--0-----------------|--------------------|--------------------|
b--------------------|--------------1-----|--3-----------0-----|-----1--------------|
g-----0--0--0-----0--|-----0--0--0-----0--|-----2--2--2-----0--|---------0----------|
D--0-----------------|--------------2-----|--3-----------0-----|-------------2------|
A--------------2-----|--3-----------------|--------------------|--3--------------3--|
E--------------------|--------------------|--------------------|--------------------|


e--------------0-----|--------------------|--------1-----0-----|--------------------|
b--3-----------------|--3-----------------|--3-----------------|--3--------0--1--3--|
g-----0--0--0-----0--|-----0--0--0--0--0--|-----0-----0-----0--|-----0--2-----------|
D--------------------|--------------------|--------0-----------|--------------------|
A--2-----------3-----|--2-----------------|--2-----------3-----|--2-----------------|
E--------------------|--------------------|--------------------|--------------------|


e--0-----------------|--------------------|--------------------|--------------------|
b--------------3-----|--1-----------3-----|--1-----------0-----|--------------1-----|
g-----0--0--0-----1--|-----2--2--2--------|--------------------|----------0---------|
D--------------------|-----------------3--|-----2--2--2-----0--|------2-------------|
A--3-----------2-----|--0-----------------|-- -----------------|--3---------------3-|
E--------------------|--------------1-----|--3-----------3-----|--------------------|
Suggest correction
Give kudos to tab author, rate the tab!
1 2 3 4 5
comments
print report bad tab
guest
You may want to rate the tab now too:
select rating
Wanna post a correction for this tab? Suggest correction