Oops, an error
Loading. Please wait.

Giuliani - La Mariposa No. 1 Tab

29 views 1 this week
no commentswrite comment
1 2 3 4 5
3 more votes to show rating
add to favorites
launch autoscroll
font size
0
reset
how to read this tab
guitar tuner
Autoscroll
slow
fast
+/-
esc
set tempo
stop
Help us to improve Ultimate-Guitar.com Take our survey!
×
LA MARIPOSA Nº 1    DE   M. GIULIANI

      m     m          m       m          m             m
      ^     ^          ^       ^          ^             ^
e|----------------|------------------|------------------------|
B|----0-----0-----|----0-------0-----|----0-------------0-----|
G|----------------|-------0-------0--|-------0--0--0-------0--|
D|----0-----0-----|----0-------0-----|----0-------------0-----|
A|----------------|------------------|------------------------|
E|----------------|------------------|------------------------|
      p                p   i   p   i      p  i  m  i    p  i

     m             m
     ^             ^          ^             ^          ^      ^      ^
e|-----------------------|------------------------|----0------1------0-----|
B|---1-------------1-----|----3-------------3-----|------------------------|
G|------0--0--0-------0--|-------0--0--0-------0--|-------0------0------0--|
D|---2-------------2-----|------------------------|-----------0------------|
A|-----------------------|----2-------------2-----|----3-------------3-----|
E|-----------------------|------------------------|------------------------|
     P  i  m  i    p  i       p  i  m  i    p  i       p  i   p  i   p  i


      ^                    ^            ^           ^            ^
e|--------------------|----1------------3------|----0------------------|
B|----3---------------|------------------------|-----------------1-----|
G|-------0--0--0--0---|-------0--0--0------0---|-------0--0--0------0--|
D|--------------------|----0-------------------|-----------------2-----|
A|----2---------------|-----------------2------|----3------------------|
E|--------------------|------------------------|-----------------------|


      ^             ^          ^  ^  ^  ^    ^       ^            ^
e|------------------------|---------------------|-----------------0-----|
B|----3-------------0-----|-------1-------------|----3------------------|
G|-------2--2--2-------0--|----------0----------|-------0--0--0------0--|
D|----3-------------0-----|-------------2-------|----- -----------------|
A|------------------------|----3-------------3--|----2------------3-----|
E|------------------------|---------------------|-----------------------|
                               P             p


      ^                      ^        ^      ^          ^  ^  ^  ^  ^  ^
e|----------------------|-------------1------0-----|----------------------|
B|----3-----------------|----3-------------------- |----3--------0--1--3--|
G|-------0--0--0--0--0--|-------0--------0------0--|-------0--2-----------|
D|----------------------|-------------0------------|----------------------|
A|----2-----------------|----2---------------3-----|----2-----------------|
E|----------------------|--------------------------|----------------------|


      ^             ^          ^            ^         ^            ^
e|----0-------------------|-----------------------|----------------------|
B|------------------3-----|----1------------3-----|---1------------0-----|
G|-------0--0--0-------1--|-------2--2--2---------|----------------------|
D|------------------------|--------------------3--|------2--2--2------0--|
A|----3-------------2-----|----0------------------|----------------------|
E|------------------------|-----------------1-----|---3------------3-----|


      ^  ^  ^  ^   ^
e|--------------------|
B|-------------1------|         ^  apoyar
G|----------0---------|
D|-------2------------|
A|----3------------3--|
E|--------------------|
      p  p  p  p   p
Suggest correction
Give kudos to tab author, rate the tab!
1 2 3 4 5
comments
print report bad tab
guest
You may want to rate the tab now too:
select rating
Wanna post a correction for this tab? Suggest correction