Oops, an error
Loading. Please wait.

Greensleeves Tab

version 1
version 1

Whole song

432 views 6 this week
no commentswrite comment
1 2 3 4 5
2 more votes to show rating
add to favorites
launch autoscroll
font size
0
reset
how to read this tab
guitar tuner
×
Best way to learn
"Greensleeves"
Autoscroll
slow
fast
+/-
esc
set tempo
stop
Greensleeves ? SIN ACABAR


E|-----|--------0--1--0----|---------------------|-------------------|-----
B|-----|--1--3--1----------|--3----0--------0----|--1----------------|--0--
G|*-2--|--2-----0----------|--0-------0--2-------|--2--2--2--1--2----|-----
D|*----|-------------------|----------0----------|-------------------|-----
A|-----|--0-----3----------|---------------------|--0-----0----------|-----
E|-----|-------------------|--3-------3----------|-------------------|--0--

E|-------------|--------0--1--0----|---------------------|-----------------
B|-------------|--1--3--1----------|--3----0--------0----|--1--0-----------
G|--1--------2-|--2-----0----------|--0-------0--2-------|--2-----2--1--2--
D|-----2-------|-------------------|----------0----------|-----------------
A|-------------|--0-----3----------|---------------------|--0--------------
E|-----0=====--|-------------------|--3-------3----------|-----------0-----

E|-------|---------------|--3----3--2--0--|--------------------|-----------
B|-------|---------------|--1----1--------|--3----0--------0---|--1--------
G|--4----|--2=========--*|*-0----0--------|--0-------0--2------|--2--2--2--
D|-------|--2=========--*|*---------------|----------0---------|-----------
A|-------|--0=========---|--3----3--------|--------------------|--0-----0--
E|-------|---------------|----------------|--3-------3---------|-----------

E|----------------|---------3------3--2--0--|---------------------|-----
B|----------------|---------1------1--------|--3----0--------0----|--1--
G|--1--2---4?1----|--2-===--0------0--------|--0-------0--2-------|--2--
D|-------------2--|--2====------------------|----------0----------|-----
A|----------------|--0====--3------3--------|---------------------|--0--
E|---------0---0--|-------------------------|--3-------3----------|-----

E|--------------|-------------|
B|--------------|-------------|
G|--2--1-----1--|--2-----2---*|
D|--------4-----|--2-----2---*|
A|--------------|--0-----0----|
E|-----0--------|-------------|

E|-----|--------0--1--0----|---3-----------------|-------------------|-----
B|-----|--1--3--1----------|--3----0--------0----|--1----------------|--0--
G|--2--|--2-----0----------|--0-------0--2-------|--2--2--2--1--2----|-----
D|-----|-------------------|----------0----------|-------------------|-----
A|-----|--0-----3----------|---------------------|--0-----0----------|-----
E|-----|-------------------|--3-------3----------|-------------------|--0?

E|-------------|--------0--1--0----|---3-----------------|-----------------
B|-------------|--1--3--1----------|--3----0--------0----|--1--0-----------
G|--1--------2-|--2-----0----------|--0-------0--2-------|--2-----2--1-----
D|-----2-------|-------------------|----------0----------|--------------4--
A|-------------|--0-----3----------|---------------------|--0--------------
E|--------0==--|-------------------|--3-------3----------|-----------0-----

E|-------|-----------------|
B|-------|-----------------|
G|-1===--|--2====[2]====2==|
D|-------|--2===[2]=====2==|
A|-------|--0==[0]======0==|
E|-------|-----------------|
Suggest correction
Give kudos to tab author, rate the tab!
1 2 3 4 5
comments
print report bad tab
guest
You may want to rate the tab now too:
select rating
Wanna post a correction for this tab? Suggest correction