Oops, an error
Loading. Please wait.

Greensleeves Tab

version 2
version 2

Whole song

107 views 1 this week
no commentswrite comment
1 2 3 4 5
3 more votes to show rating
add to favorites
launch autoscroll
font size
0
reset
how to read this tab
guitar tuner
×
Best way to learn
"Greensleeves"
Autoscroll
slow
fast
+/-
esc
set tempo
stop
PRIMERA PARTE

e -----------0--2-p-0------------
B -----1--3------------3-p-0-----
G --2-------------------------0--
D -------------------------------
A -----0--2--3----------------2--
E ---------------------3---------


e -------------------------------
B ----0--1---------------0-------
G -2--------2--2--1-h-2-----1----
D -------------3---------------2-
A -------0---------------2-------
E -----------------------------0-


e -----------0--2-p-0------------
B --0--1--3------------3-p-0-----
G ----------------------------0--
D -------------------------------
A -----0--2--3----------------2--
E ---------------------3---------


e ---------------------------------0--5-|
B ----0--1-p-0------------------1-----5-|
G -2------------2-h-1-----1--2--------5-|
D ------------------2--4----------------|
A -------0----------------------------0-|
E --------------------------------------|


SEGUNDA PARTE


e --3--3--2-p-0------------
B ---------------3-p-0-----
G ----------------------0--
D -------------------------
A --3-------------------2--
E ---------------3---------


e --------------------------------
B ----0--1---------------0--1--3--
G -2--------2--2--1-h-2-----------
D -------------3------------------
A -------0---------------2--------
E -----------------------------3--


e --3--3--2-p-0------------
B ---------------3-p-0-----
G ----------------------0--
D -------------------------
A --3-------------------2--
E ---------------3---------


e ---------------------------------0--5-|
B ----0--1-p-0------------------1-----5-|
G -2------------2-h-1-----1--2--------5-|
D ------------------2--4----------------|
A -------0----------------------------0-|
E --------------------------------------|


FINALE


e -----------0--2-p-0------------
B -----1--3------------3-p-0-----
G --2-------------------------0--
D -------------------------------
A -----0--2--3----------------2--
E ---------------------3---------


e -------------------------------
B ----0--1---------------0-------
G -2--------2--2--1-h-2-----1----
D -------------3---------------2-
A -------0---------------2-------
E -----------------------------0-


e -----------0--2-p-0------------
B --0--1--3------------3-p-0-----
G ----------------------------0--
D -------------------------------
A -----0--2--3----------------2--
E ---------------------3---------


e ---------------------------------0--5-||
B ----0--1-p-0------------------1-----5-||
G -2------------2-h-1-----1--2--------5-||
D ------------------2--4----------------||
A -------0----------------------------0-||
E --------------------------------------||


COLABORACION: JOSE LUIS LOERA M.
             (MENDOZALUIS1@
ES LA ROLA MAC TRANKIS K E ESCUCHADO ESPERO LA DISFRUTEN AL TOKRLA...
Suggest correction
Give kudos to tab author, rate the tab!
1 2 3 4 5
comments
print report bad tab
guest
You may want to rate the tab now too:
select rating
Wanna post a correction for this tab? Suggest correction