Oops, an error
Loading. Please wait.

Greensleeves Tab

version 3
version 3

Whole song

89 views 1 this week
no commentswrite comment
1 2 3 4 5
3 more votes to show rating
add to favorites
launch autoscroll
font size
0
reset
how to read this tab
guitar tuner
×
Best way to learn
"Greensleeves"
Autoscroll
slow
fast
+/-
esc
set tempo
stop
aqui les dejo esta tablatura clasica, una hermosa cancion
ya esta bien, la saque de partituras


E |-----|-------0--2--0-|---------------|-----------------|----------|
B |-----|-1--3--1-------|-3--0--------0-|--1--------------|-0--------|
G |-2---|-2-----0-------|-0-----0--2----|--2--2--2---1?2--|-1?1----2-|
D |-----|-2-------------|-0-----0-------|--2-----2--------|-2----2---|
A |-----|-0-----3-------|---------------|--0-----0--------|----------|
E |-----|---------------|-3-----3-------|-----------------|-0----0---|

E |---------0--2?0-|---------------|---------------|----------|
B |--1---3--1------|-3--0--------0-|--1--0---------|----------|
G |--2------0------|-0-----0--2----|--2----2--1---0|-2--2-----|
D |--2-------------|-0-----2-------|--2---------3--|-2--2-----|
A |--0------3------|---------------|--0------------|-0--0-----|
E |----------------|-3-----0-------|----------0----|----------|

E |--3---3---2?0-|----------------|----------------|------------|
B |--2---1-------|--3--0--------0-|--1-------------|--1---------|
G |--0---0-------|--0-----0--2----|--2--2--2--1--2-|--2---2---2-|
D |--0-----------|--0-----0-------|--2-----2-------|--2-------2-|
A |--0---3-------|----------------|--0-----0-------|--0-------0-|
E |--3-----------|--3-----3-------|----------------|------------|

E |--3--3--2?0-|----------------|------------------|---------|
B |--2--1------|--3--0--------0-|--1--0------------|---------|
G |--0--0------|--0-----0--2----|--2-----2--1----0-|-2--2--2-|
D |--0---------|--0-----2-------|--2-----------3---|-2--2----|
A |--0--3------|----------------|--0---------------|-0--0----|
E |--3---------|--3-----3-------|-----------0------|---------|

E |--------0--2--0|----------------|---------------|-------------|
B |--1--3--1------|--3--0--------0-|-1-------------|--0----------|
G |--2-----0------|--0-----0--2----|-2--2--2--1--2-|--1--1-----2-|
D |--2------------|--0-----0-------|-2-----2-------|--2-----2----|
A |--0-----3------|----------------|-0-----0-------|-------------|
E |---------------|--3-----3-------|---------------|--0-----0----|

E |--------0-?-2--0|--------------------|--------------------|-------|
B |--1--3--1-------|--3---0---------0---|---1---0------------|-------|
G |--2-----0-------|--0------0---2------|---2-----3--1-----0-|--2--2-|
D |--2-------------|--0------2----------|---2-----------3----|--2--2-|
A |--0-----3-------|--------------------|---0----------------|--0--0-|
E |----------------|--3------0----------|------------0-------|-------|


fin espero y les gusten,
si quieren al final la vuelven a tocar (repetir)  :D
Suggest correction
Give kudos to tab author, rate the tab!
1 2 3 4 5
comments
print report bad tab
guest
You may want to rate the tab now too:
select rating
Wanna post a correction for this tab? Suggest correction