Oops, an error
Loading. Please wait.

Greensleleeves Tab

31 views 1 this week
no commentswrite comment
1 2 3 4 5
3 more votes to show rating
add to favorites
launch autoscroll
font size
0
reset
how to read this tab
guitar tuner
×
Best way to learn
"Greensleleeves"
Autoscroll
slow
fast
+/-
esc
set tempo
stop
E|-----|--------0--1--0----|---------------------|-------------------|-----
B|-----|--1--3-------------|--3----0-------------|--1----------------|--0--
G|--2--|--2----------------|--0-------0--2--4----|--2--2--2--1--2----|-----
D|-----|-------------------|----------0----------|-------------------|-----
A|-----|--0-----3----------|---------------------|--0-----0----------|-----
E|-----|-------------------|--3-------3----------|-------------------|--0--


E|-------------|--------0--1--0----|---------------------|-----------------
B|-------------|--1--3-------------|--3----0-------------|--1--0-----------
G|--1----------|--2----------------|--0-------0--2--4----|--2-----2--1-----
D|-----2-------|-------------------|----------0----------|--------------4--
A|-------------|--0-----3----------|---------------------|--0--------------
E|--------0----|-------------------|--3-------3----------|-----------0-----


E|-----|---------------|--3------3--2--0--|---------------------|-----------
B|-----|---------------|--1------1--------|--3----0-------------|--1--------
G|--1--|--2----2--2----|--0------0--------|--0-------0--2--4----|--2--2--2--
D|-----|--2----2--2----|------------------|----------0----------|-----------
A|-----|--0----0--0----|--3------3--------|---------------------|--0-----0--
E|-----|---------------|------------------|--3-------3----------|-----------


E|----------|----------------|--3------3--2--0--|---------------------|-----
B|----------|--0-------------|--1------1--------|--3----0-------------|--1--
G|--1--2----|-----1----------|--0------0--------|--0-------0--2--4----|--2--
D|----------|--------2-------|------------------|----------0----------|-----
A|----------|----------------|--3------3--------|---------------------|--0--
E|----------|--0----------0--|------------------|--3-------3----------|-----


E|--------------|-------------|--
B|--------------|-------------|--
G|--2--1-----0--|--2-----2----|--
D|--------4-----|--2-----2----|--
A|--------------|--0-----0----|--
E|-----0--------|-------------|--
Suggest correction
Give kudos to tab author, rate the tab!
1 2 3 4 5
comments
print report bad tab
guest
You may want to rate the tab now too:
select rating
Wanna post a correction for this tab? Suggest correction