Oops, an error
Loading. Please wait.

Handel - Zarabanda En Rem Tab

73 views 1 this week
no commentswrite comment
1 2 3 4 5
3 more votes to show rating
add to favorites
launch autoscroll
font size
0
reset
how to read this tab
guitar tuner
Autoscroll
slow
fast
+/-
esc
set tempo
stop
Help us to improve Ultimate-Guitar.com Take our survey!
×
Esta es la última parte de la pieza
"Zarabanda en Rem con Variaciones" y es la clave de Fa
la que lleva la melodía.


p stacc.
E----------------------------------------------------------------
A-----------------------2---------------------5------------------
D-2-1-2-4-5---------4-1---5-4-5-7-------7-4-7---5-7-5-7-9-10-----
G-----------2-4-2-4---------------4-5-7----------------------7-9?


                                       f
E---------------------------------------3---0-3------------------
A-------7---3-------------------------2---2-----2-------------5-2
D-9-5-9---5---5-----------------5-4-2-------------4-----5-4-5----
G---------------5-4-2-5-4-5-4-2---------------------4-2----------


                                   più f            Rit. Molto....
E---3-------------------------------------------------------3---0-
A-5---2-5-3-5-----------3---0-3-------5-3-2-3-0-------2---2---2---
D-------------2-4-5---2---2-----2-4-2-------------------2---------
G-------------------2---------------------------4-2-4-------------
                                                                >
Bueno, esta es muy fácil, ya que todas las notas son negras,
excepto la última que es blanca.

Espero les sirva.

Saludos a Sebas, Walter y Jere, mis guitarristas favoritos.

Peticiones, aclaraciones, correcciones, etc. etc.
*=*=*=*=*=*=*=*=*=*=*=*=*=*=*
*                           *
*  Magicknithe@  *
*                           *
*=*=*=*=*=*=*=*=*=*=*=*=*=*=*

AGUANTE LA MÚSICA CLÁSICA Y EL HEAVY METAL CABRONES!!!!!!!
Suggest correction
Give kudos to tab author, rate the tab!
1 2 3 4 5
comments
print report bad tab
guest
You may want to rate the tab now too:
select rating
Wanna post a correction for this tab? Suggest correction