Oops, an error
Loading. Please wait.

Himno A La Alegría Tab

97 views 1 this week
no commentswrite comment
1 2 3 4 5
3 more votes to show rating
add to favorites
launch autoscroll
font size
0
reset
how to read this tab
guitar tuner
Autoscroll
slow
fast
+/-
esc
set tempo
stop
Help us to improve Ultimate-Guitar.com Take our survey!
×
e.-0--1-3-3-1-0---------0-0--0-1-3-3-1-0---------0-------0-----0-1-0---
B.--------------3-1-1-3----3-------------3-1-1-3---3-1-3---1-3---------
G.---------------------------------------------------------------------
D.---------------------------------------------------------------------
A.---------------------------------------------------------------------
E.---------------------------------------------------------------------

e.------0-1-0---------|
B.-1-3--------3-1-3---|
G.------------------0-|
D.--------------------|
A.--------------------|
E.--------------------|

e.-0--1-3-3-1-0---------0-0--0-1-3-3-1-0---------0-------0-----0-1-0---
B.--------------3-1-1-3----3-------------3-1-1-3---3-1-3---1-3---------
G.---------------------------------------------------------------------
D.---------------------------------------------------------------------
A.---------------------------------------------------------------------
E.---------------------------------------------------------------------

e.------0-1-0---------|
B.-1-3--------3-1-3---|
G.------------------0-|
D.--------------------|
A.--------------------|
E.--------------------|
Suggest correction
Give kudos to tab author, rate the tab!
1 2 3 4 5
comments
print report bad tab
guest
You may want to rate the tab now too:
select rating
Wanna post a correction for this tab? Suggest correction