Oops, an error
Loading. Please wait.

Himno De La Alegria Tab

version 1
version 1

Whole song

848 views 3 this week
no commentswrite comment
1 2 3 4 5
1 last vote to show rating
add to favorites
launch autoscroll
font size
0
reset
how to read this tab
guitar tuner
×
Best way to learn
"Himno De La Alegria"
Autoscroll
slow
fast
+/-
esc
set tempo
stop
ODE TO JOY (Beethoven)
 ==========
                          --'clip & save' for December (beats the Muzak
                             version of 'Jingle Bell Rock'?!...)
  
 -- comp. Beethoven (from _9th_Symphony_, 4th Movement)
   -- transcribed/tabbed for 'easy classical' guitar: tcg, 1988/1994
   -- 4/4 // key of C // Moderato
   -- two voices; ====== means hold tone thru other, 'moving' voice...
   -- Sequence: A-B-B, as indicated by repeat signs
  
  
 A Section
 ||--0---0---1---3--|---3---1---0------|---------------0--|---0====----------|
 ||-----------------|---------------3--|---1---1---3------|---------3-3====--|
 ||-----------------|------------------|---------------0--|------------------|
 ||----------0---2--|---0====---3====--|---2====---3------|------------------|
 ||--3====----------|------------------|------------------|---3---3---2------|
 ||-----------------|------------------|------------------|---------------3--|
     1   2   3   4      1   2   3   4      1   2   3   4      1   2 & 3   4
  
 |---0---0---1---3--|---3---1---0------|---------------0--|-----------------||
 |------------------|---------------3--|---1---1---3------|---3====-1-1====-||
 |------------------|------------------|------------------|-----------------||
 |-----------0---2--|---0====---3====--|---2====---3---0--|-----------------||
 |---3====----------|------------------|------------------|---2-------3====-||
 |------------------|------------------|------------------|-------3---------||
     1   2   3   4      1   2   3   4      1   2   3   4      1   2 & 3   4
  
 B Section
 ||----------0------|-----0-1---0------|-----0-1---0------|---------------0==|
 ||--3---3-------1--|---3-----------1--|---3-----------3--|---1---3----------|
 ||o----------------|------------------|------------------|-----------0------|
 ||o----------------|------------------|------------------|------------------|
 ||--2====---3====--|---2====---3====--|------------------|---0--------------|
 ||-----------------|------------------|---3====---0---4--|-------2---3====--|
     1   2   3   4      1 & 2   3   4      1 & 2   3   4      1   2   3   4
  
 |===0---0---1---3--|--3---1---0---1---|---------------0--|-----------------||
 |------------------|----------------3-|---1---1---3------|---3====-1-1====-||
 |------------------|------------------|------------------|----------------o||
 |---2-------0---2--|--0====---3======-|---2====---3---0--|----------------o||
 |-------3----------|------------------|------------------|---2-------3====-||
 |------------------|------------------|------------------|-------3---------||
     1   2   3   4     1   2   3   4 &     1   2   3   4      1   2 & 3   4
  
  
 CODA [just kiddin'--but I love this chord]:     CM9b5
 |--------------------2===============||        ______
 |----------------3===3===============||      1 |||||| 
 |-----------4========4===============||        ||1==1
 |-------2============2===============||        |2||3|
 |---3================3===============||        |||4||
 |------------------------------------||

   |
Suggest correction
Give kudos to tab author, rate the tab!
1 2 3 4 5
comments
print report bad tab
guest
You may want to rate the tab now too:
select rating
Wanna post a correction for this tab? Suggest correction