Oops, an error
Loading. Please wait.

Historia De Un Amor Chords

191 views 1 this week
no commentswrite comment
1 2 3 4 5
3 more votes to show rating
add to favorites
launch autoscroll
font size
0
reset
transpose
0
reset
display chords
guitar tuner
×
Best way to learn
"Historia De Un Amor"
Autoscroll
slow
fast
+/-
esc
set tempo
stop
aqui les va una melodia melodia bastante antigua pero inmortal:


1|------------------------------------------------------------
2|-1-----1-1-----1-1--------------0-0------0-0----------------    
3|------------------------------------------------------------ 
4|---2-2-----2-2-----2-3-2-0-0-0------0-0------0-2-0----------
5|---------------------------------------------------3-3-3----
6|------------------------------------------------------------

1|------------------------------------------------------------
2|-----------0-0-0-----0------1-----1-1-----1-1---------------    
3|-2-2-------------1-2----------------------------------------
4|-------0---------------3-2----2-2-----2-2-----2-3-2-0-0-0---
5|-----3---3--------------------------------------------------
6|------------------------------------------------------------

1|------------------------------------------------------------
2|-0-0-----0-0-------------------------------0-0-0-----0---2--
3|-------------------------2-2-----2-2-------------1-2---0----
4|-----0-0-----0-2-0---------------------0--------------------
5|-------------------3-3-3-----3-3-----3---3------------------
6|------------------------------------------------------------

1|---0---1---1-----------1---0---0-----------0----------------
2|-3---------------0-0-3---3---------------1---1-3-0-3-0-1----
3|-----2---2---2-2-------------0---0-0-2-2--------------------
4|------------------------------------------------------------
5|------------------------------------------------------------
6|------------------------------------------------------------

1|---0-----0-1------------------------------------------------
2|-3-----1---------1-1-0-1-3-----------0---------------2--1---
3|-----2-------0-2-------------------0---2-2-0-------4--3-----
4|---------------------------3-2-2-3-----------3-2-1----------
5|------------------------------------------------------------
6|------------------------------------------------------------

escuchen la melodia y le recomiendo que les hagan sus efectos de sonido corespondientes

esta es la version de piano a guitarra, pero si realmente quieren la
version de guitarra acustica o electrica comuniquense conmigo a mi email.
pero les aviso que estas versiones son bastante tediosas para sacar, pero 
les aseguro que son mucho mejores.
Suggest correction
Give kudos to tab author, rate the tab!
1 2 3 4 5
comments
print report bad tab
guest
You may want to rate the tab now too:
select rating
Wanna post a correction for this tab? Suggest correction