Oops, an error
Loading. Please wait.

Huapango De Moncayo Tab

268 views 3 this week
no commentswrite comment
1 2 3 4 5
1 last vote to show rating
add to favorites
launch autoscroll
font size
0
reset
how to read this tab
guitar tuner
×
Best way to learn
"Huapango De Moncayo"
Autoscroll
slow
fast
+/-
esc
set tempo
stop
Esta es mi primera transcripcion estoy un 99% seguro que esta correcto
dudas, comentarios o correciones mi correo es macl_0593@


-----------------------------------------------------
-----------------------------------------------------
-----------------------------------------------------
-----------------------------------------------------
-----------------------------------------------------
-8-8-7-8-7-5-7---8-8-7-5-7---3-5-5-5-5-5-5---3-5-5-5-

-----------------------------------------------------
-----------------------------------------------------
-----------------------------------------------------
-----------------------------------------------------
-----------------------------------------------------
-5-5-7-3---7-7-7-7-7-7-8---3-8-7-8-7-5-7-3---2-2-2-2-

-----------------------------------------------------
-----------------------------------------------------
-----------------------------------------------------
-----------------------------------------------------
-----------------------------------------------------
-2-2-3---8-8-7-8-7-5-7---8-8-7-8-7-5-7---3-5-5-5-5-5-

-----------------------------------------------------
-----------------------------------------------------
-----------------------------------------------------
-----------------------------------------------------
-----------------------------------------------------
-7-3---3-5-5-5-5-5-5-7-3---7-7-7-7-7-7-8---3-8-7-8-7-

-----------------------------------------------------
-----------------------------------------------------
-----------------------------------------------------
-----------------------------------------------------
-----------------------------------------------------
-5-7-3---0-5-3-5-3-7-8-------------------------------
Suggest correction
Give kudos to tab author, rate the tab!
1 2 3 4 5
comments
print report bad tab
guest
You may want to rate the tab now too:
select rating
Wanna post a correction for this tab? Suggest correction