Oops, an error
Loading. Please wait.

Isaac Albeniz - Capricho Catalán tab

399 views 1 this week
no commentswrite comment
1 2 3 4 5
3 more votes to show rating
add to favorites
×
Save as Personal and add changes to this tab that will be seen only by you. Learn more ›
×
You can save this tab as Personal to edit and correct it or add notes. All changes will be seen only by you. Learn more »
launch autoscroll
font size
0
reset
how to read this tab
guitar tuner
edit
Autoscroll
slow
fast
+/-
esc
set tempo
stop
Para guitarra clásica


                                                                          
E||-------------|-------------|-------------|-------------|--------------|
B||-------------|-------------|--7-------5--|--8----5--7--|--3-----0-----|
G||-------------|-------------|--7-------6--|--9----6--7--|--4-----0-----|
D||-------------|-------------|--7----------|-------------|--------------|
A||--0--0----0--|--0--0----0--|-----0----0--|-------------|-----0-----0--|
D||--0----------|--0----------|--0----------|--0----------|--0-----------|


                                                                        
-------------|-----------0--|-------------|--------------|-------------|
-------------|--0-----2-----|--2----------|-----2/-7--2--|--0----------|
--2----------|--0-----------|-------2-----|--4-----------|-------------|
--4----------|--------------|--2----------|--4-----------|--4----------|
-----0----0--|-----0-----0--|----------0--|-----0--------|-----0----0--|
--0----------|--0-----------|--0----------|--0-----------|--0----------|


                                                                       
-------------|-----------4--|--2-----------|-------------|------------|
--2-------2--|--------6-----|--2--2--------|-------------|--5---------|
--2-------2--|--4-----------|--2-----4--7--|--2----------|--2---------|
--4-------4--|--6-----------|--------6-----|--4----------|--2---------|
-----4----4--|--5--5--------|--4-----5--5--|--4--4----4--|--4----4----|
--4----------|--4-----------|--------4-----|--4----------|--2---------|


                                                                       
--------------|-----------|--------------|--------------|-------------|
--7--3--5--7--|---9-------|--5-----------|-----0--------|--7-------5--|
--------------|-----------|--6--6--7--5--|--6--0--4-----|--7-------6--|
--------------|-----------|--7--5--6-----|--------5--7--|--7----------|
--5--2--4--5--|---7-------|-----6--7-----|--0-----4-----|-----0----0--|
--------------|-----------|-----------6--|--------------|--0----------|


                                                                        
-------------|--------------|-------------|-----------0--|-------------|
--8----5--7--|--3-----0-----|-------------|--0-----2-----|--2----------|
--9----6--7--|--4-----0-----|--2----------|--0-----------|-------2-----|
-------------|--------------|--4----------|--------------|--2----------|
-------------|-----0-----0--|-----0----0--|-----0-----0--|----------0--|
--0----------|--0-----------|--0----------|--0-----------|--0----------|


                                                                         
--------------|-------------|-------------|-----------4--|--2-----------|
-----2/-7--2--|--0----------|--2-------2--|--------6-----|--2--2--------|
--4-----------|-------------|--2-------2--|--4-----------|--2-----4--7--|
--4-----------|--4----------|--4-------4--|--6-----------|--------6-----|
-----0--------|-----0----0--|-----4----4--|--5--5--------|--4-----5--5--|
--0-----------|--0----------|--4----------|--4-----------|--------4-----|


                                                                          
-------------|--------------|--------------|--------------|--------------|
-------------|--------0--3--|--0--3--6--3--|--2-----0--2--|--------------|
--2----------|--2-----2--4--|--2--4--7--4--|--1-----------|--2-----------|
--4----------|--2-----3--3--|--3--3--7--3--|--2--2-----0--|--2-----------|
--4--4----4--|--4--4--------|--------------|--------------|--0--1--2--0--|
--4----------|--2-----------|--------------|--2-----------|--------------|


                                                                        
-------------|--------------|--------------|-------------|-------------|
--5~------0--|--3-----2-----|--2-----0-----|-------------|--8-------7--|
--6~------0--|--4-----2--2--|--2-----0-----|--0----------|--9-------7--|
-------------|-----------4--|--------------|--2----------|-------------|
--0~-0-------|--0--0-----0--|--0--0-----0--|--0--0----0--|--0--0----0--|
-------------|--------------|--------------|-------------|-------------|


                                                                           
--------------|--0-----------|--------------|-----------3--|--------------|
-----7--5-----|--2--3--0-----|--------------|--6-----------|--6--5--4--5--|
--7--7--6--6--|-----4--0--0--|--------------|--7-----3--4--|--------------|
--9--------8--|-----------2--|--2-----------|--6--7--------|-----0--------|
--0--0-----0--|--0--------0--|--4--1--2--0--|--------------|--------------|
--------------|--------------|--6-----------|--------5-----|--6-----------|


                                                                           
--------------|--------------|-----------0--|--------------|--------------|
--1-----------|--1--0-----0--|--0-----1-----|--1-----------|--------------|
-----------5--|--2-----3-----|--0-----2-----|--2-----2-----|-----0--2--5--|
--1--2--3-----|--1-----------|--2-----------|--------------|--4-----4--7--|
--0-----------|--------------|--2--2-----2--|-----2-----2--|--2--2--3--6--|
--------5-----|--------------|--2-----------|--2-----------|--------------|


                                                                          
-------------|-----------3--|--------------|--------------|--------------|
--0----------|--0-----3--3--|--5-----1-----|-----0--1--4--|--3-----------|
-------------|--0-----4-----|--5-----2-----|--2--0--2--5--|--4-----------|
--2----------|-----0-----0--|-----0-----0--|--4--0-----0--|-----0--5--4--|
--2----------|--------------|--------------|--------------|--------------|
--2--2----1--|--0-----------|--0-----------|--0-----------|--5-----------|


                                                                         
-------------|--------------|--------------|--------------|-------------|
--0--0----0--|--0--0-----0--|-----0-----0--|-----0-----0--|--0--0----0--|
--0--0----0--|--0--0-----0--|-----0-----0--|-----0-----0--|--0--0----0--|
--4----------|--------------|--------------|--------------|-------------|
----------7--|--------------|--7-----9-----|--9-----7-----|--9-------7--|
-------------|--9-----8--9--|--------------|--------------|-------------|


                                                                              
--------------|---------------|--------------|--------------|----------------|
--0--0-----0--|-----0------0--|-----0-----0--|--12-------7--|--10---------5--|
--0--0-----0--|-----0------0--|-----0-----0--|--12-------7--|--11-----12--6--|
--------------|---------------|--------------|--12----------|----------------|
--------------|--7--9--10--9--|--9-----7-----|------0----0--|--0---0------0--|
--9-----8--9--|---------------|--------------|--------------|----------------|


                                                                           
--------------|--------------|-------------|-------------|----------------|
--2-----------|--------------|-------------|-------4--6--|-------11-------|
--2-----2-----|--------0-----|--3-------5--|--3----------|--12-------12---|
--------4-----|--4-----2-----|--3----------|--5----------|----------------|
-----0-----0--|--6-----0--0--|--5----------|-------------|----------------|
--------------|--7--7--------|--6--6----6--|--5----------|----------------|


                                                                      
-------------|------------|-------------|-------------|--------------|
-------------|------------|--7-------5--|--8----5--7--|--3-----0-----|
--10---8-----|--7----6----|--7-------6--|--9----6--7--|--4-----0-----|
-------------|--5---------|--7----------|-------------|--------------|
-------------|--0---------|-----0----0--|-------------|-----0-----0--|
-------------|------------|--0----------|--0----------|--0-----------|


                                                                         
-------------|-----------0--|--------------|--------------|-------------|
-------------|--0-----2-----|--2-----------|-----2/-7-----|--0----------|
--2----------|--0-----------|--------2-----|--4--------6--|-------------|
--4----------|--------------|--2-----------|--4-----------|--4----------|
-----0----0--|-----0-----0--|-----0-----0--|-----0-----0--|-----0----0--|
--0----------|--0-----------|--0-----------|--0-----------|--0----------|


                                                                         
-------------|--------------|--------------|--------------|--7-------9--|
-------------|--------------|--------------|--------8--0--|--8-------8--|
--5-------4--|--4--------3--|-----0--3--4--|--6--7--7--0--|--7-------9--|
--4-------4--|--4-----------|--4-----------|--------9-----|-------------|
--5-------5--|--5--4--3-----|--1--2--------|--------------|--0--0----0--|
-----0-------|--------------|--------4--5--|--8--9--------|-------------|


                                                                        
--7-----5-----|--------------|--------------|-----3--------|-----------|
--8-----5-----|--7~------10--|--8-----7-----|--5-----5--7--|--5--------|
--7-----6-----|--7~------9---|--7-----7-----|--4--4--------|--4--------|
--------------|-----7----11--|--9--9-----7--|--5-----5--7--|--5--------|
--0--0-----0--|--------------|--------------|--0-----------|--0--------|
--------------|--0~----------|--------------|--------------|-----------|


                                                                     
--5--------|-------------|-------------|-------------|--------------|
--7--------|-------------|-------------|--7-------5--|--8-----5--7--|
--6--------|-------------|-------------|--7-------6--|--9-----6--7--|
--5--------|-------------|-------------|--7----------|--------------|
--0--------|--0--0----0--|--0--0----0--|-----0----0--|-----0-----0--|
-----------|--0----------|--0----------|--0----------|--0-----------|


                                                                       
--------------|-------------|-------------|-------------|-------------|
--3-----0-----|-------------|--3----------|-------------|--3----------|
--4-----0-----|--2----------|--1----------|-------------|--2----------|
--------------|--4----------|--3----------|-------------|--4----------|
-----0-----0--|-----0----0--|--1--1----1--|--1--1----1--|--0----12----|
--0-----------|--0----------|-------------|-------------|--0----------|


                                                                        
-------------|-----------|--12--12--10--------|------------|-----------|
-------------|-----------|-------------12-10--|------------|--5--------|
-------------|-----------|--------------------|--11--------|--3--------|
--12---------|--7--------|--------------------|------------|--3--------|
-------------|-----------|--------------------|------------|--5--------|
--------9----|-----------|--------------------|------------|--5--------|


                         
--10--------|----------||
--7---------|----------||
--7---------|----------||
--7---------|----------||
--0---------|----------||
--0---------|----------||

            
            
Suggest correction
Creating personal tab
Creating personal tab
You can edit any tab online and save it as your Personal.

You can edit, replace or remove any tab part or add personal notes – all changes will be seen only by you.

Personal tabs can be accessed anytime from any device, even offline.
Learn more »
Give kudos to tab author, rate the tab!
1 2 3 4 5
comments
print report bad tab
guest
Wanna post a correction for this tab? Suggest correction