Oops, an error
Loading. Please wait.

J. L. Merlin - Evocación Tab

118 views 1 this week
no commentswrite comment
1 2 3 4 5
3 more votes to show rating
add to favorites
launch autoscroll
font size
0
reset
how to read this tab
guitar tuner
×
Best way to learn
"J. L. Merlin - Evocación"
Autoscroll
slow
fast
+/-
esc
set tempo
stop
                             V---------------------
E||-----------3/-7------8--|--5-----------------------|
B||--------5---------------|-----------5--------5-----|
G||*----4------------------|--------5--------5--------|
D||*-----------------------|-----7--------5--------5--|
A||------------------------|--------------------------|
E||--0---------------------|--5-----------------------|
        2  4  1  1      2     1  3  1  1  1  1  1  1
                              1

             II--------
E|-----------2--5/-------7--|--3-----------------------|
B|-----0--4-----------4-----|-----------0--------0-----|
G|--------------------------|--------0--------0--------|
D|--4--------------4--------|-----2--------1--------1--|
A|--------------2-----------|--------------------------|
E|--------------------------|--0-----------------------|
    2     3  1  4  2  3  4     4  2        1
                1

                              II
E|--------0-2/--3--------5--|--2-----------5--3--2--0--|
B|-----0--------------0-----|-----------5--------------|
G|-----------------0--------|-----2--5-----------------|
D|--0-----------------------|--------------------------|
A|--------------4-----------|--3-----------------------|
E|--------------------------|--------------------------|
             1  1        4     1  1  4  4  4  3  2
                2              2

                            (1)
E|-----------0--2/-------3--|--0-----------------------||
B|-----0--4-----------0-----|--------------0-----------||
G|-----------------2--------|-----------0-----0-------*||
D|--------------1-----------|--------2-----------2----*||
A|--2-----------------------|-----2-----------------2--||
E|--------------------------|--0-----------------------||
    2     4     3  2     3        1  2
                1

(2)
E|--0-----------------------||--------4--7/-10--------12--|
B|--------------0-----------||-----5---------------9------|
G|-----------0-----0--------||*---------------------------|
D|--------2-----------2--1--||*-0---------------9---------|
A|-----2--------------------||----------------------------|
E|--0-----------------------||--------------0-------------|
                                   2  1  4   4  1  2  4

                                   VII--------------------------
E|--8--------------------8-------|---------------8---------10--|
B|------------10---------10------|--------7--10--------10------|
G|---------9----------9----------|-----7------------7----------|
D|-----10------------------------|-----------------------------|
A|--0-------------10---------10-|--9--------------------------|
E|-------------------------------|-----------------------------|
    1  3   2  4   3   2  1          3  1  1   4  2  1  4   4
                         4   3

  VII
E|--7------------------7-----|---------------7---------8--|
B|------------8--------8-----|------------8---------------|
G|---------7-----------7-----|---------9------------9-----|
D|------9-----------9--------|-----10-----------10--------|
A|--10-----------9--------9--|--7-------------------------|
E|---------------------------|----------------------------|
    1   3  1  2  3  4  1  3     1  4   3  2  1  4   3  2
    4                  2
                       1

    V
E|--5-----------5-----------|--------------------------|
B|-----------6-----6--------|-----0-----7--8--------7--|
G|--------5-----------------|--------8-----------8-----|
D|-----7--------------------|-----------------7--------|
A|--8-----------------8--7--|--6-----------------------|
E|--------------------------|--------------7-----------|
    1  3  1  2  1  2  4  3     2     4  3  3  1  2  1
    4                                      1

 (1)                         (2)
E|--0-----------------------|--0-----------------------|-------0--------||
B|--------------0-----------|--------------0-----------|------0---------||
G|-----------0-----0-------*|-----------0-----0--------|-----0----------||
D|--------2-----------2--1-*|--------2-----------2-----|----2-----------||
A|-----2--------------------|-----2-----------------2--|---2------------||
E|--0-----------------------|--0-----------------------|--0-------------||
                                                         *Strum ^
Suggest correction
Give kudos to tab author, rate the tab!
1 2 3 4 5
comments
print report bad tab
guest
You may want to rate the tab now too:
select rating
Wanna post a correction for this tab? Suggest correction