Oops, an error
Loading. Please wait.

J.s. Bach - Badinerie Tab

397 views 1 this week
no commentswrite comment
1 2 3 4 5
3 more votes to show rating
add to favorites
launch autoscroll
font size
0
reset
how to read this tab
guitar tuner
×
Best way to learn
"J.s. Bach - Badinerie"
Autoscroll
slow
fast
+/-
esc
set tempo
stop
E||--7--10--7-----7-----|----------------|--------------------|
B||------------7-----7--|-----7----------|--------------------|
G||---------------------|--7-----7-------|------7-----6-4-6-4-|
D||---------------------|-----------9----|----9----9----------|
A||---------------------|----------------|--9-----------------|
E||---------------------|----------------|--------------------|


-----------------------|--7--10--7-----7-----|----------------|
--------------3---3----|------------7-----7--|-----7----------|
----6-9--6--4---4---4--|---------------------|--7-----7-------|
--8--------------------|---------------------|-----------9----|
-----------------------|---------------------|----------------|
-----------------------|---------------------|----------------|


-------------------|--7----------------|-------------------|
-------------------|-------------------|--7--7----7---7-7--|
--7--7--7-4-7-4-7--|-----7--7-9-7-9-6--|--------7---7------|
-------------------|-------------------|-------------------|
-------------------|-------------------|-------------------|
-------------------|-------------------|-------------------|


--10----------------|------5-------------|------7---------------|
------7--7-8-7-8-6--|----7----7--9-7-9-7-|--6-9----9--10-9-10-9-|
--------------------|--6-----------------|----------------------|
--------------------|--------------------|----------------------|
--------------------|--------------------|----------------------|
--------------------|--------------------|----------------------|


----5--------7------|----9--------10------|----10-9--7--9----------|
--7---7-6--7---7-6--|--7---7-6--7----7-6--|--7------------10-9--7--|
--------------------|---------------------|------------------------|
--------------------|---------------------|------------------------|
--------------------|---------------------|------------------------|
--------------------|---------------------|------------------------|


----------------------||---2--5--2-----2-----|----------------|
--10--9-10-9-10-7-----||------------2-----2--|-----2----------|
---------------------*||*--------------------|--2-----2-------|
---------------------*||*--------------------|-----------4----|
----------------------||---------------------|----------------|
----------------------||---------------------|----------------|


--------0-----2--|--5--3--2--3--0--|-----7--------------|----------------|
--1--0-----4-----|-----------------|--8-----8--5--8--5--|-----5----------|
-----------------|-----------------|--------------------|--6-----6-------|
-----------------|-----------------|--------------------|-----------7----|
-----------------|-----------------|--------------------|----------------|
-----------------|-----------------|--------------------|----------------|


------2-----0---0---|----0-3-0--2-0-2-0-|----2---------3-------|
----3----3----3---3-|--2----------------|--3---3--2--3---3--2--|
--2-----------------|-------------------|----------------------|
--------------------|-------------------|----------------------|
--------------------|-------------------|----------------------|
--------------------|-------------------|----------------------|


----5---------7-------|----7-5---5----------|------------------|
--3-------------------|--------8---7--5-----|--7--5-7-5-7------|
------7--6--7---7--6--|--7---------------7--|-------------7----|
----------------------|---------------------|------------------|
----------------------|---------------------|------------------|
----------------------|---------------------|------------------|


-------------------|--10----------------|-------------------|
--7--7--7-8-7-8-7--|------7--7-8-7-8----|----------7---7----|
-------------------|-----------------9--|--9--9--9---9---9--|
-------------------|--------------------|-------------------|
-------------------|--------------------|-------------------|
-------------------|--------------------|-------------------|


--9----------------|--7--10--7----------|----7-5----------|
--------5-7-5-7-3--|------------10-8----|--------8-7-5----|
-----9-------------|--------------------|-----------------|
-------------------|--------------------|-----------------|
-------------------|--------------------|-----------------|
-------------------|--------------------|-----------------|


----------------------|----------------|---------------|--------------------|
----8-7-5-----5-8--5--|----------------|-------------2-|--5--3-2-3--------5-|
----------7-5---------|--5-4-5-4-3-----|--------4--3---|------------4-6-7---|
----------------------|-------------4--|--5--4---------|--------------------|
----------------------|----------------|---------------|--------------------|
----------------------|----------------|---------------|--------------------|


---------7-----|--0---------------||
--7--3-7----7--|------------0-----||
---------------|----7-6-7-6------*||
---------------|-----------------*||
---------------|------------------||
---------------|------------------||

YA LO SABEN DUDAS BLARKNEMESIS@AOL O A LARAROSY@
Suggest correction
Give kudos to tab author, rate the tab!
1 2 3 4 5
comments
print report bad tab
guest
You may want to rate the tab now too:
select rating
Wanna post a correction for this tab? Suggest correction