Oops, an error
Loading. Please wait.

J.s. Bach - Bourre Guitar Tab

169 views 1 this week
no commentswrite comment
1 2 3 4 5
3 more votes to show rating
add to favorites
launch autoscroll
font size
0
reset
how to read this tab
guitar tuner
×
Best way to learn
"J.S. Bach - Bourre Guitar"
Autoscroll
slow
fast
+/-
esc
set tempo
stop
Bach-Bourre-Guitar- Por Alan Rangel
Esta kncion sta facilisima, las primeras 2 partes
se repiten 2 veces para que en total sean 4

1) ---0------------0---------------------+
2) -1-1-3---0-1--3------1---3---0--1-----+
3) ---0---0-------------------0------0---+
4) ---2-------2------2---3---------2-----+
5) ---3-------------------------------3--+
6) -------3------------------------------+

1) ---0------------0---------------------+
2) -1-1-3---0-1--3------1---3---0--1-----+
3) ---0---0-------------------0------0---+
4) ---2-------2------2---3---------2-----+
5) ---3-------------------------------3--+
6) -------3------------------------------+

1) -3-3-5--3-1-0-1---1-3--1-----0-------------------+
2) ----------------3---------------3-1-0------------+
3) -----------------------------0--------2-0--------+
4) ---3--2---0-------------------------------3-2----+
5) ----------------2------0--3----------------------+
6) --------------------3----------------------------+

1) --0------------0---------------------+
2) --1-3---0-1--3------1---3---0--1-----+
3) --0---0-------------------0------0---+
4) --2-------2------2---3---------2-----+
5) --3-------------------------------3--+
6) ------3------------------------------+

1) -3-3-5--3-1-0-1---1-3--1-----0-------------------+
2) ----------------3---------------3-1-0------------+
3) -----------------------------0--------2-0--------+
4) ---3--2---0-------------------------------3-2----+
5) ----------------2------0--3----------------------+
6) --------------------3----------------------------+

1) --0------------0---------------0------+
2) --1-3---0-1--3------1---3---0--1------+
3) --0---0-------------------0----0--0---+
4) --2-------2------2---3---------2------+
5) --3----------------------------3---3--+
6) ------3-------------------------------+

Dudas i comentarios a voinasverdes@
@L@n R@nGeL MoReno Torreon Coah.
Suggest correction
Give kudos to tab author, rate the tab!
1 2 3 4 5
comments
print report bad tab
guest
You may want to rate the tab now too:
select rating
Wanna post a correction for this tab? Suggest correction