Oops, an error
Loading. Please wait.

J.s. Bach - Choral Prelude In E Flat Major (Bwv645) Tab

133 views 3 this week
no commentswrite comment
1 2 3 4 5
3 more votes to show rating
add to favorites
launch autoscroll
font size
0
reset
how to read this tab
guitar tuner
Autoscroll
slow
fast
+/-
esc
set tempo
stop
Tuning - E A D G B E     Time Signature - 4/4

 |       |       |       |        |       |       |       |
|--------------------------------|----0---0-------1---0-----------|
|--------------------------------|1-3---------3-------------------|
|------------------------0-------|------------------------0-------|
|--------------------------------|----------------------------3---|
|--------------------------------|3-------3-------3---------------|
|--------------------------------|------------------------0-------|

 |       |       |       |        |       |       |       |
|0-------------------------------|----0---0-------1---0-----------|
|--1-3-----------0---1-----------|1-3---------3-------------------|
|----------------------------0---|------------------------0-------|
|--------3---2-------------------|----------------------------3---|
|----------------3---------------|3-------3-------3---------------|
|1-------3-----------------------|------------------------0-------|

 |       |       |       |        |       |       |       |
|0---------------------------3---|3-------1-0---------------------|
|--1-3-----------0---1-----------|------------3-1-3-1-0---------0-|
|--------------------------------|----------------------2-0---2---|
|--------3---2-------------------|--------------------------------|
|----------------3---------------|--------0-----------------------|
|1-------3-----------------------|0---------------3-------1-------|

 |       |       |       |        |       |       |       |
|----0---1-0-----0---------------|0---2-------3-------------------|
|1-3---3-----3-1-----3-----------|----------------1-0-1-----------|
|----------------------------0---|----------------------------2---|
|--------------------------------|--------------------------------|
|--------3---------------2-------|3-------2-------0-------3-------|
|0---------------3---------------|--------------------------------|

 |       |       |       |        |       |       |       |
|2---3-------5---------------8---|7-5-3---3-2-3-----2-0-----------|
|----------------1-0-1-----------|----------------------3-1-0-----|
|--------------------------------|0---------------------------2-0-|
|0-------2-------4-------0-------|--------4-------2-------0-------|
|--------------------------------|--------------------------------|
|--------------------------------|--------------------------------|

 |       |       |       |        |       |       |       |
|------------------2-3-5-3-2-0---|3-------------------------------|
|--0-1---1-0-1-----------------3-|----0---0---------1-0---0-------|
|2-------------------------------|------------2-0-0-----2-----0---|
|--------------------------------|--------0---0---------------0---|
|3-------2-------0-------3-------|2-------------------2-----------|
|--------------------------------|----3-----------0-------3-------|

 |       |       |       |        |       |       |       |
|--------------------------------|----0---0-------1---0-----------|
|--------------------------------|1-3---------3-------------------|
|--------------0-0-----------0---|------------------------0-------|
|2-----4-4-------0---------------|----------------------------3---|
|3-------5-------2---------------|3-------3-------3---------------|
|----------------3---------------|------------------------0-------|

 |       |       |       |        |       |       |       |
|0-------------------------------|----0---0-------1---0-----------|
|--1-3-----------0---1-----------|1-3---------3-------------------|
|----------------------------0---|------------------------0-------|
|--------3---2-------------------|----------------------------3---|
|----------------3---------------|3-------3-------3---------------|
|1-------3-----------------------|------------------------0-------|

 |       |       |       |        |       |       |       |
|0---------------------------3---|3-------1-0---------------------|
|--1-3-----------0---1-----------|------------3-1-3-1-0---------0-|
|--------------------------------|----------------------2-0---2---|
|--------3---2-------------------|--------------------------------|
|----------------3---------------|--------0-----------------------|
|1-------3-----------------------|0---------------3-------1-------|

 |       |       |       |        |       |       |       |
|----0---1-0-----0---------------|5---7-------8---1-0-1-------5---|
|1-3---3-----3-1-----3-------1---|--------------------------------|
|----------------0---------------|--------------------------------|
|--------------------3-----------|3---------------0---------------|
|--------3---------------2-------|--------7---------------3-------|
|0-------------------------------|--------------------------------|

 |       |       |       |        |       |       |       |
|7---8-------10--1-0-1-----------|0-----------------6-5-3-1-0-----|
|----------------------------3---|--3-1-----0-1---------------3-1-|
|--------0-------2---------------|0-------2-----------------------|
|0-----------------------3-------|----------------3---2---0-------|
|--------------------------------|----------------------------3---|
|--------------------------------|--------------------------------|

 |       |       |       |        |       |       |       |
|--0-1-----0-1-------------------|3-------0---------1-0---0-------|
|3-----------------0-1-3-1-0-----|----1-----3-1-0-1-----3-----1---|
|----------------------------2-0-|--------------------------------|
|--------0-----------------------|----------------------------2---|
|2-------------------0-----------|----0-----------0---2---3-------|
|----------------3-------3---1---|0-------1---3-------------------|

 |       |       |       |
|-------------------------------|
|------0-0-----1-1--------------|
|2-------0-------0--------------|
|3---0-----------2--------------|
|----------------3--------------|
|------------3------------------|
Suggest correction
Give kudos to tab author, rate the tab!
1 2 3 4 5
comments
print report bad tab
guest
Wanna post a correction for this tab? Suggest correction