Oops, an error
Loading. Please wait.

J.s. Bach - Toccata Tab

184 views 1 this week
no commentswrite comment
1 2 3 4 5
3 more votes to show rating
add to favorites
launch autoscroll
font size
0
reset
how to read this tab
guitar tuner
Autoscroll
slow
fast
+/-
esc
set tempo
stop
Help us to improve Ultimate-Guitar.com Take our survey!
×
joahan sebastian bach - toccata (in Dm)
tab by manolo gongora damas


e|---17p15h17---15--13p12---------|--5p3h5-----------------------|
B|-----------------------15-14-15-|------------------------------|
G|--------------------------------|-----------------2------------|
D|--------------------------------|--------2-3------0------------|
A|--------------------------------|------------0s4--0------------|
E|--------------------------------|------------------------------|


e|-----------------------------|---------------------------------|
B|-----------------------------|-----------------------7---------|
G|-------------------------7---|--------6h9---7--6----7----------|
D|---7p5h7-7--7p5----------7---|-----5h8------7--7---7-----------|
A|---------0------8-7-5-4--5---|--4h7---------5--7--9------------|
E|-----------------------------|-----------------5---------------|


e|------------------------------------------------------------------------------------|
B|------------------------------------------------------------------------------------|
G|----------------------------------------------------------0h2h3--0h2h3--0h2h3--0h2--|
D|------------------------------2h3h5--2h3h5--2h3h5--2h3h5----------------------------|
A|--4h5h7--4h5h7--4h5h7--4h5h7--------------------------------------------------------|
E|------------------------------------------------------------------------------------|


e|-----------------------------------------------------------3h5h6--3h5h6--3h5h6--3h5--|
B|--2h3h5--2h3h5--2h3h5--2h3h5---5h6h8--5h6h8--5h6h8--5h6h8----------------------------|
G|-------------------------------------------------------------------------------------|
D|-------------------------------------------------------------------------------------|
A|-------------------------------------------------------------------------------------|
E|-------------------------------------------------------------------------------------|


e|--5-3-6---3-6-------5-----5-------3-----3-------1-----1-------0-----0----------------|
B|--------5-------3-6---3-6-------5-----5-------3-----3-------2-----2---------2-----2--|
G|------------------------------5-----5-------3-----3-------2-----2-------0-2---0-2----|
D|-------------------------------------------------------------------------------------|
A|-------------------------------------------------------------------------------------|
E|-------------------------------------------------------------------------------------|


e|-----------------------------------------------------------------------|
B|------1-----1----------------------------------------------------------|
G|----2-----2-------0-3---0-3-------2-----2-------0-----0-----0-----0----|
D|--3-----3-------2-----2-------0-3---0-3-------2-----2-----2-----2------|
A|--------------------------------------------3-----3-----3-----3--------|
E|-----------------------------------------------------------------------|


e|-------------------------------------------------------------------------------------|
B|--------------------------------------------------------------8-8-8-8---11-11-11-11--|
G|------------------------------------------6-6-6-6---9-9-9-9--------------------------|
D|----------------------5-5-5-5---8-8-8-8----------------------------------------------|
A|--4-4-4-4---7-7-7-7------------------------------------------------------------------|
E|-------------------------------------------------------------------------------------|


e|--------------------------------------------------------------------|
B|--------------------------------------------------------------------|
G|-3-2-0--------------------------------------------------------------|
D|-------3-2-0--------------0h2h3-5-3-2--3h2h3h2h3h2h3h2---3----------|
A|-------------4-2-4--0h2h4--------------------------------5----------|
E|---------------------------------------------------------5----------|


e|---------------------------------------------------------------------|
B|------------------------------8------------8---10--------8---10---11-|
G|----7---9---10---7---9---10-------9---10------------10---------------|
D|--7---7---7----7---7---7----7---7---7----7---7----7----7---7----7----|
A|--0---0---0----0---0---0----0---0---0----0---0----0----0---0----0----|
E|---------------------------------------------------------------------|


e|---------------------------------------------------------------------|
B|----8---10--------8--------------------------------------------------|
G|-------------10-------9---10---7---9---6----7------------------------|
D|--7---7----7----7---7---7----7---7---7---7--7------------------------|
A|--0---0----0----0---0---0----0---0---0---0--0------------------------|
E|---------------------------------------------------------------------|


e|--------------------------------------------------------------------------|
B|--------------------------------------------------------------------------|
G|--------------------------------------------------------------------------|
D|--------------------------------------------------------------------------|
A|--0-12-0-13-0-10-0-12-0-8-0-10-0-7-0-8-0-5---0-10-0-7-0-8-0-5-0-7-0-4-0-5-|
E|--------------------------------------------------------------------------|


e|------6----------5----------3------------5-----6-----5-----3----5----|
B|----6---6------5---5------3---3--------5-------6-----5-----3----5----|
G|--7----------5----------3------------2-------7-7---5-5---3-3----2----|
D|-----------------------------------2----------------------------2----|
A|---------------------------------------------------------------------|
E|---------------------------------------------------------------------|


e|------6----------5----------3------------5-----6-----5-----3----5----|
B|----6---6------5---5------3---3--------5-------6-----5-----3----5----|
G|--7----------5----------3------------2-------7-7---2-2---3-3----2----|
D|-----------------------------------2----------------------------2----|
A|---------------------------------------------------------------------|
E|---------------------------------------------------------------------|


e|-------------------------------------------------------------------3-5-6--|
B|--------------------------------------------------2-3--------3-5-6--------|
G|------------------------------------------------2------2-4-6--------------|
D|--5-3-2---------------------0h2h3--5--3-2-0---3---------------------------|
A|---------5-4-2-4-0----0h2h4-----------------------------------------------|
E|--------------------------------------------------------------------------|


e|----6-----5-----3----5----|
B|----6-----5-----3----5----|
G|--7-7---5-5---3-3----2----|
D|---------------------2----|
A|--------------------------|
E|--------------------------|


e|------6----------5----------3------------5-----6-----5-----3----5----|
B|----6---6------5---5------3---3--------5-------6-----5-----3----5----|
G|--7----------5----------3------------2-------7-7---2-2---3-3----2----|
D|-----------------------------------2----------------------------2----|
A|---------------------------------------------------------------------|
E|---------------------------------------------------------------------|


e|--------------------------6----5-3-1-0-----------------------------------0---|
B|---3---2------------5--8---------------6-5-3-2-------------------------2-----|
G|---4---0----------6----------------------------7-5-3-2---------------0-------|
D|---3---2----s8--7--------------------------------------5-3-2-0-----2---------|
A|---0---0---------------------------------------------------------0-----------|
E|-----------------------------------------------------------------------------|


e|--3-6-3-------3-6-3-------3-6-3-------3-6-3-----------------------|
B|--------5-2-5-------5-2-5-------5-2-5-------2-5-2-----------------|
G|------------------------------------------------------------------|
D|------------------------------------------------------------------|
A|------------------------------------------------------------------|
E|------------------------------------------------------------------|


e|------------------------------------------------------------------|
B|--2-5-2-------2-5-2-------2-5-2-------2-5-2-----------------------|
G|--------3-0-3-------3-0-3-------3-0-3-------3-0-3-----------------|
D|------------------------------------------------------------------|
A|------------------------------------------------------------------|
E|------------------------------------------------------------------|


e|------------------------------------------------------------------|
B|------------------------------------------------------------------|
G|------------------------------------------------------------------|
D|--2-5-2-------2-5-2-------2-5-2-------2-5-2-----------------------|
A|--------4-1-4-------4-1-4-------4-1-4-------4-1-4-----------------|
E|------------------------------------------------------------------|


e|--------------------------------------6---5---7---3-------0-------|
B|------------------------5---5-8-5-8---5---5---6---3-------2-------|
G|------------3---3-6-3-6---6-----------6---6---7---3--2-0--0-------|
D|--2-5-2---5---5---------------------------7---7---5-------2-------|
A|------------------------------------------7---5---5-------0-------|
E|------------------------------------------5---5---3---------------|


e|----------------------------------9---10s--------------------------1-|
B|----------------------------------8---10s------------------------3---|
G|----------------------------------9---10s---9------------------2-----|
D|--------------------------------------------9--7--3--3-2-3---0-------|
A|---7-8--5-7--4-5---4------------------------7-----5------------------|
E|-----------------7----5-6--4-5--------------------5------------------|


joahan sebastian bach - fugue     (incompleto)

e|--------------------------------------------------------------------------------------|
B|--10-8-10----10---10---10---10---10---10----10----10---10---10---10---10---10---10----|
G|----------10----9----7----6----7----9----10---------------6----7----6----7----9----10-|
D|------------------------------------------------7----9--------------------------------|
A|--------------------------------------------------------------------------------------|
E|--------------------------------------------------------------------------------------|

e|--10-8-10----10----10---10---10---10----10----10---10---10---10---10---10---10----10----10-|
B|----------11----10----8----7----8----10----11--------------7----8----7----8----10----11----|
G|-------------------------------------------------7----9------------------------------------|
D|-------------------------------------------------------------------------------------------|
A|-------------------------------------------------------------------------------------------|
E|-------------------------------------------------------------------------------------------|

e|------------------------------------------------------------------|
B|------------------------------------------------------------------|
G|------------------------------------------------------------------|
D|------------------------------------------------------------------|
A|------------------------------------------------------------------|
Suggest correction
Give kudos to tab author, rate the tab!
1 2 3 4 5
comments
print report bad tab
guest
You may want to rate the tab now too:
select rating
Wanna post a correction for this tab? Suggest correction