Oops, an error
Loading. Please wait.

J.s. Bach - Toccata Y Fuggue En Dm Tab

version 2
version 2

Whole song

70 views 1 this week
no commentswrite comment
1 2 3 4 5
3 more votes to show rating
add to favorites
launch autoscroll
font size
0
reset
how to read this tab
guitar tuner
Autoscroll
slow
fast
+/-
esc
set tempo
stop
Help us to improve Ultimate-Guitar.com Take our survey!
×
Este es un arreglo para guitarra electrica, esto es lo que toca la
guitarra principal, despues agregaré lo que toca la segunda guitarra

E||--17-15-17---15-----------------------------------------------|
B||----------------18-17-15----15------10-9-10-------------------|
G||-------------------------18-------------------9-10----14------|
D||---------------------------------------------------11-12------|
A||--------------------------------------------------------------|
E||--------------------------------------------------------------|


----------------------------|----------------------|
----------------------------|------3--3--3-------2-|
-----------------------6----|------2--2--2---------|
--------------------8-------|------5--2--4---------|
----------------------------|----------------------|
----------------------------|----------------------|


----------------------0-1h3-0-1h3-0-1h3-0-1/3-|
--3h5-2-3h5-2-3h5-2-3-------------------------|
----------------------------------------------|
----------------------------------------------|
----------------------------------------------|
----------------------------------------------|


--5h6-3-5h6-3-5h6-3-5-------------|
-------------------------------14-|
----------------------------------|
----------------------------------|
----------------------------------|
----------------------------------|


-----------------------------------13h15-12-13h15-12-13h15-12-13h15-|
--15h17-14-15h17-14-15h17-14-15h17----------------------------------|
--------------------------------------------------------------------|
--------------------------------------------------------------------|
--------------------------------------------------------------------|
--------------------------------------------------------------------|


--17h18-15-17h18-15-17h18-15-17----------17-|
--------------------------------------------|
--------------------------------------------|
--------------------------------------------|
--------------------------------------------|
--------------------------------------------|


--15-18----15-18-------17-------17-------15-------15----------------------|
--------17-------17-18----15-18----15-17-------17-------15-18----15-18----|
--------------------------------------------17-------17-------15-------15-|
--------------------------------------------------------------------------|
--------------------------------------------------------------------------|
--------------------------------------------------------------------------|


----------------------------------------------------------------------|
--13-17----13-17----11-15----11-15----10-13----10-13----8-11---8-11-5-|
--------14-------14-------12-------12-------10-------10------9--------|
----------------------------------------------------------------------|
----------------------------------------------------------------------|
----------------------------------------------------------------------|


--------------------------------0-----|-----5-------------------------------|
--6-10---6-10---5-8---5-8-------11----|-------8-6-5-------------5-8-8----5--|
-------7------7-----6-----6-----12----|-------------7-6-4-6---6-------------|
--------------------------------11----|---------------------7---------------|
--------------------------------------|-------------------------------------|
--------------------------------------|-------------------------------------|


--1----------10-12-13-10-12-13-15-12-|
--3-------10-------------------------|
-------------------------------------|
-------------------------------------|
-------------------------------------|
-------------------------------------|


--13-15-17-13-15-17-18-15-17----15----------------|
-----------------------------18----17-18-15-17-14-|
--------------------------------------------------|
--------------------------------------------------|
--------------------------------------------------|
--------------------------------------------------|


--------------------------------------------------|
--15----------------------------------------------|
-----14-15-12-14----12----------12----------------|
-----------------15----14-15-12----14-15-12-14-11-|
--------------------------------------------------|
--------------------------------------------------|


--------------------------------------------------|
--------------------------------------------------|
--------------------------------------------------|
--12-------------------------12----------12----11-|
-----12-13-10-12----10----------------------------|
-----------------13----12-13----15-12-13----12----|


------------------------------------------------------------------------|
------------------------------------------------------------------------|
------------15----------14----------12-------------14----15----14----12-|
---------15----15----14----14----12----12-------14-------15----14----12-|
--17~-17----------15----------13----------12-16-------17----15----13----|
------------------------------------------------------------------------|


-------------------------------------------------------------------|
-------------------------------------------------------------------|
--14--------15----------14----------12----------9-14----15--14--12-|
--14-----15----15----14----14----12----12----11------12-15--14--12-|
--16--17----------15----------13----------12-----------------------|
-------------------------------------------------------------------|


-----------------------------------------------------------------------------|
--------------------------------------------------------------------------14-|
--14-----------------------------------------------14-12p10p9h10-------14----|
--14-----17p15p14-------------------------14h15h17------------------15-------|
--16--------------17p16p14h16----14h16h17------------------------17----------|
------------------------------17---------------------------------------------|


-----------------------15h17h18-----18----17----15-17--------18----|
--15----------15h17h18--------------18----17----15-17--15-18----18-|
-----14h16-18--------------------19----------15----18--------------|
---------------------------------------19--------------------------|
---------------------------------------------------19--------------|
-------------------------------------------------------------------|


                                                        A
--------17----------15----------12-17----18----17----15-17------|
-----17----17----15----15----14-------15-18----17----15-17------|
--17----------15----------14----------------------15----18--16--|
--------------------------------------------19--------------15--|
--------------------------------------------------------19------|
----------------------------------------------------------------|


---------------12-15-18--17p15p13----13---------------------------------|
--14--12----14--------------------17----17-15p14h15---------------------|
--14-----14-----------------------------------------17p15p14------------|
-------------------------------------------------------------17p15p14-0-|
------------------------------------------------------------------------|
------------------------------------------------------------------------|


  Bbm/5-
--12--------------------------------------------|
--14--------14-17-14----14----14-17-14----14----|
--15-----------------15----15----------15----15-|
------------------------------------------------|
------------------------------------------------|
------------------------------------------------|


--------------------------------------------------------------------------|
--14-17-14----14----14-17-14----14----------------------------------------|
-----------15----15----------15----15-12-15-12----12----12-15-12----12----|
-----------------------------------------------14----14----------14----14-|
--------------------------------------------------------------------------|
--------------------------------------------------------------------------|


--------------------------------------------------------------------------|
--------------------------------------------------------------------------|
--12-15-12----12----12-15-12----12----------------------------------------|
-----------14----14----------14----14-11-14-11----11----11-14-11----11----|
-----------------------------------------------13----13----------13----13-|
--------------------------------------------------------------------------|


--------------------------------------------------------------------------|
--------------------------------------------------------------------------|
--------------------------------------------------12----------------12----|
--11-14-11----11----11-14-11----11----11-14-11-14----14-11-14-11-14----14-|
-----------13----13----------13----13-------------------------------------|
--------------------------------------------------------------------------|


--------------------------------------------------------------------------|
--------------------------------------------------------------------------|
--------------12-------------------12-15-12-15-12-15-12-15-12-15-12-15-12-|
--11-14-11-14----14-11-14-11-14-11----------------------------------------|
--------------------------------------------------------------------------|
--------------------------------------------------------------------------|


                                      A     F6       Gm        A7
--------------------------------------0-----17----|--15--------17--------|
--14----14h17p14-17p14-17p14-17p14-17t17----18----|--15--------14--------|
-----15-------------------------------18----19----|--15--------14--------|
--------------------------------------19----19----|--17--------19--------|
--------------------------------------16----20----|--17--------16--------|
--------------------------------------------20----|----------------------|


         A  Dm
----------------------------|-------------------|------------------|
---------14-15--------------|-------------------|------------------|
---------14-14--------------|-------------------|------------------|
---------14-15--15--14------|--0----------------|------------------|
------------17--17------16--|-------------------|------------------|
----------------------------|-------------------|------------------|


--------------------------------|--------------------------------------------|
-----------15t13-15t11-15t10-15t|--8-15t7-15t8-15t10-15t11-15t3-15t5-15t7-15t|
--------------------------------|--------------------------------------------|
--------------------------------|--------------------------------------------|
--------------------------------|--------------------------------------------|
--------------------------------|--------------------------------------------|


---------------------------10------10--|--11------11----------------------|
--8-15t7-15t8-15t10-15t11------11------|------------------13------13------|
---------------------------------------|------12------12------14------14--|
---------------------------------------|----------------------------------|
---------------------------------------|----------------------------------|
---------------------------------------|----------------------------------|


----------------------------------|--9-----9---------------------|
--15------15------11------11------|--------------10------10------|
----------------------12------12--|-----9-----9------10------10--|
------15------15------------------|------------------------------|
----------------------------------|------------------------------|
----------------------------------|------------------------------|


--------------------------|---------------17t15-17t13-17t12-17t|
--8-----8-----6-----6-----|--5-----5---------------------------|
-----6-----6-----7-----7--|-----3-----3------------------------|
--------------------------|------------------------------------|
--------------------------|------------------------------------|
--------------------------|------------------------------------|


--10-17t9-17t10-17t12-17t13-17t5-17t7-17t9-17t|
----------------------------------------------|
----------------------------------------------|
----------------------------------------------|
----------------------------------------------|
----------------------------------------------|


--10-17t9-17t10-17t12-17t13-17t12-17t10-17t8-17t|
------------------------------------------------|
------------------------------------------------|
------------------------------------------------|
------------------------------------------------|
------------------------------------------------|


--6-17t8-17t10-15t6-15t12-15t10-15t8-15t6-15t|
---------------------------------------------|
---------------------------------------------|
---------------------------------------------|
---------------------------------------------|
---------------------------------------------|


--5-15t6-15t8-13t5-13t10----------------------|
-------------------------18t13-18t11-18t10-18t|
----------------------------------------------|
----------------------------------------------|
----------------------------------------------|
----------------------------------------------|


-----------------------------------------------|
--8-18t10-18t11-17t8-17t14-17t11-17t10-17t8-17t|
-----------------------------------------------|
-----------------------------------------------|
-----------------------------------------------|
-----------------------------------------------|


-------------------------------------------|
--6-17t8-17t10-17t6-17t5-17t5-17t6-15t6-15t|
-------------------------------------------|
-------------------------------------------|
-------------------------------------------|
-------------------------------------------|


---------------------------------------------|
--11-14t11-14t10-15t6-15t5-17t5-17t6-15t6-15t|
---------------------------------------------|
---------------------------------------------|
---------------------------------------------|
---------------------------------------------|


---10-9-10----10-9----9------------------|
-----------12------12---10-8-10---8------|
--------------------------------9---10-9-|
-----------------------------------------|
-----------------------------------------|
-----------------------------------------|


--------------------------------------------------|
-----15-14-15-17-15-14----------------------------|
--10-------------------16-18-14----14-------------|
--------------------------------17----14-17-15-14-|
--------------------------------------------------|
--------------------------------------------------|


----------------------------------|--------------------------|
------15------14--15--------------|--------------------------|
----------------------14--15------|--14----14----12----12----|
--15------14------14----------17--|--------16----15----13----|
----------------------------------|--------------------------|
----------------------------------|--------------------------|


--------------------------------15--|------14--15----------------------|
--------------16--15----------------|----------15--13------15--15--15--|
--11--14--11--17------15-14-15--16--|--14--------------15--14--15--11--|
------12----------------------------|----------------------------------|
------------------------------------|----------------------------------|
------------------------------------|----------------------------------|


----------------------------------|
--15--15--15--15--15--15--15--15--|
--12--11--12--14--15--14--15--11--|
----------------------------------|
----------------------------------|
----------------------------------|


-----15-13-15-12-13----12----17-15-17-13-15-12-13-|
--15----------------15----13----------------------|
-----15-14-15-12-14----12----17-15-17-14-15-12-14-|
--17----------------15----14----------------------|
--------------------------------------------------|
--------------------------------------------------|


-----18-17-18----17----15----20-18-20-17-18----17-|
--15----------20----18----17----------------20----|
-----19-17-19----17----16----21-19-21----19----17-|
--15----------20----19----17----------22----20----|
--------------------------------------------------|
--------------------------------------------------|


--------------------------------------------------|
--18-16----------------------15-------------------|
--------19-17-19-17-15-14-15-15-15-14-12-15-12-10-|
--19----------20-19-17-14-17----17-14-14-17-14-12-|
--------19----------------------------------------|
--------------------------------------------------|


-----------------10---------------------|----------------------------------|
-----------10-11----13-11-10----13--11--|--10----------11--13--------------|
--9--10-12-10-12----9-----10------------|------12--14--------------10--12--|
--10-12-14------------------------------|----------------------14----------|
----------------------------------------|----------------------------------|
----------------------------------------|----------------------------------|


------------------------------------------|
------------------13----------------------|
--14--12--14--15-----15-14-12-------------|
------------------------------15-13-12----|
---------------------------------------15-|
------------------------------------------|


--------------------------------------------------|
--15-13-------------------17-15-------------------|
--------15-14-12----------------17-15-14----------|
--12-------------15-14-12----------------17-15-14-|
--------------------------15----------------------|
--------------------------------------------------|


--------------------------15----------------------|
--18-17-15-------------------18-17-15-------------|
-----------17-15-14-------------------17-15-14----|
--12----------------17-15-14-------------------17-|
--------------------------------------------------|
--------------------------------------------------|


--17----------------------17----------------------|
-----18-17-18----18-17-18----18-17-18----18-17-18-|
--------------17----------------------17----------|
--15----------------------15----------------------|
--------------------------------------------------|
--------------------------------------------------|


--15----------------------15----------------------|
-----17-15-17----17-15-17----17-15-17----17-15-17-|
--------------17----------------------17----------|
--------------------------14----------------------|
--19----------------------------------------------|
--------------------------------------------------|


--17----------------------17----------------------|
-----18-17-18----18-17-18----18-17-18----18-17-18-|
--------------17----------------------17----------|
--15----------------------15----------------------|
--------------------------------------------------|
--------------------------------------------------|


--15----------------------15----------------------|
-----17-15-17----17-15-17----17-15-17----17-15-17-|
--------------17----------------------17----------|
--------------------------14----------------------|
--19----------------------------------------------|
--------------------------------------------------|


-----15----------------------------------17-------|
--18----18-17-15-------------------15-18----18-15-|
-----------------17-16-14-16----16----------------|
-----------------------------17-------------------|
--17----------------------------------------------|
--------------------------------------------------|


-----------------17----------------------15-------|
-----------15-18----18-15-------------17----17----|
--16----16----------------15----15-17----------17-|
-----17----------------------17-------------------|
--------------------------------------------------|
--------------------------------------------------|


-----------------15----------------------13-------|
--------------17----17-------------13-15----15----|
--15----15-17----------17-14----14-------------15-|
-----17----------------------15-------------------|
--------------------------------------------------|
--------------------------------------------------|


-----------------13----------------------12-------|
-----------13-15----15----------------14----14----|
--14----14-------------15-12----12-15----------15-|
-----15----------------------14-------------------|
--------------------------------------------------|
--------------------------------------------------|


-----------------12----------17-15-17----17----17-|
--------------14----14----------------18----17----|
--12----12-15----------15-14----------------------|
-----14-------------------------------------------|
--------------------------------------------------|
--------------------------------------------------|


-----17----17----17----17----17----17----17----17-|
--------------15----17----18----------------------|
--19----18----------------------------16----18----|
--------------------------------19----------------|
--------------------------------------------------|
--------------------------------------------------|


-----17----17-----12------------------|----------------------------------|
--15----14----15--14--15--13--12--10--|--12------------------------------|
--------------------------14--12--11--|--12-14-12------------------------|
--------------------------------------|-----------15-14-12-11------------|
--------------------------------------|-----------------------14---------|
--------------------------------------|----------------------------------|


------------------|------------------|------------------|------------------|
------------------|------------------|------------------|------------------|
------------------|------------------|------------------|------------------|
------------------|------------------|------------------|------------------|
------------------|------------------|------------------|------------------|
------------------|------------------|------------------|------------------|


----------------1-----|--------1-------------|----------------1-----|
--------------3---3---|------3---3-----------|--------------3---3---|
--------------------2-|------------2---------|--------------------2-|
----------------------|----------------------|----------------------|
----------------------|----------------------|----------------------|
----------------------|----------------------|----------------------|


--------1-----------0-----|--------0-----------1-----|--------------------|
------3---3-------2---2---|------2---2-------3---3---|---3-0--------------|
------------2-----------3-|------------3-----------2-|--------------------|
--------------------------|--------------------------|--------------------|
--------------------------|--------------------------|--------------------|
--------------------------|--------------------------|--------------------|


------------------|-------1-0---5--------|
------------------|-----------3----------|
------------------|----------------------|
------------------|----------------------|
------------------|----------------------|
------------------|----------------------|


---------------------------------------------|
--15h16p15---------------------------16--15--|
-----------17-15-14--------14----12----------|
--------------------17-16--------------------|
---------------------------------------------|
---------------------------------------------|


----------------------------------|------------------15--------|
--16--15--16--12--13--12--13--15--|--16--15--16--18------------|
----------------------------------|----------------------------|
----------------------------------|----------------------------|
----------------------------------|----------------------------|
----------------------------------|----------------------------|


------------------|----------15-15-13-15----13----12-|
------------------|----------------------16----15----|
------------------|----------------------------------|
------------------|----------------------------------|
------------------|----------------------------------|
------------------|----------------------------------|


-----13-11-13-10-11----10----11-10-11----10-------|
--13----------------13----11----------13----11-13-|
--------------------------------------------------|
--------------------------------------------------|
--------------------------------------------------|
--------------------------------------------------|


-----10----10-------------------------------------|
--10----13----11-13-10-11----11-10-11-13-11-10----|
--------------------------12-------------------12-|
--------------------------------------------------|
--------------------------------------------------|
--------------------------------------------------|


----------10----------------10----------------|
------10--------13----11-------10-11----10----|
--11---------12----11----12----------12----11-|
----------------------------------------------|
----------------------------------------------|
----------------------------------------------|


-----10----10----10----10-------10----------------|
--------------------10----11-------10-11----13-10-|
--12----11----12-------------12----------12-------|
--------------------------------------------------|
--------------------------------------------------|
--------------------------------------------------|


--10-------------------------------10-11-10----10-|
-----13-11-10-11-10-11----10-11-13----------13----|
-----------------------12-------------------------|
--------------------------------------------------|
--------------------------------------------------|
--------------------------------------------------|


----------------------------13-15-16-15-13-15-|
--11-13-10-11-----12--13-16-------------------|
--------------12------------------------------|
----------------------------------------------|
----------------------------------------------|
----------------------------------------------|


-----13-----------------------------|------------------------------|
--16----15-16-13--11--10--11~---10~-|---------------------------11-|
------------------------------------|----12~---11--10--------------|
------------------------------------|------------------13~---12----|
------------------------------------|------------------------------|
------------------------------------|------------------------------|


-----------------11-10-------17-15-14-15~--13-|
--10-11-10-------------13-11------------------|
-----------12-11------------------------------|
----------------------------------------------|
----------------------------------------------|
----------------------------------------------|


                          D     C/5-     Gm
-----13-------------------------------|--------------5--9--10--12--13----10----|
--16----15-16-13----------15----13----|--11------------------------------10----|
-----------------15-14-12-14----11----|--12-10-------6--9--10--12--14-12----10-|
--------------------------------------|--------13-12---------------------------|
--------------------------------------|----------------------------------------|
--------------------------------------|----------------------------------------|


--12---------------3-5-10-----------------|--15--10--9--10--12--10--9--10--|
-----10-8-10-14-10-----10-11-8-10-----10--|------10--8-----------------10--|
-------------10--------10-12-9-10-10------|--12---------10--12--10--9------|
----------------------------------12------|--------------------------------|
------------------------------------------|--------------------------------|
------------------------------------------|--------------------------------|


--12--10--9--10--12--15--13------|------12--10--10--9----10--12--|
--11--10--8------10--17--15--15--|--11------10-------------------|
-------------10--------------14--|--12--12------10---------------|
---------------------------------|-------------------------------|
---------------------------------|-------------------------------|
---------------------------------|-------------------------------|


--13--12--13------------------12--|--13--12--13--15--17-18-15-17----15-------|
--------------14--15--14--15------|------------------------------18----17-18-|
----------------------------------|------------------------------------------|
----------------------------------|------------------------------------------|
----------------------------------|------------------------------------------|
----------------------------------|------------------------------------------|


--------------------------------------------------|
--------------------17----18----17----18----20----|
--19----18----19----------------------------------|
-----19----19----19----19----19----19----19----19-|
--------------------------------------------------|
--------------------------------------------------|


--17----------------------17--------|------------------|
--------17----18----20--------------|------------------|
------------------------------------|------------------|
-----19----19----19----19-----------|------------------|
------------------------------------|------------------|
------------------------------------|------------------|


-----------12-10-9-10---13-|--12-13-15-17-18-17-15-17---------------------|
---------------------------|--------------------------18--17--15-17-18-16-|
---------------------------|----------------------------------------------|
---------------------------|----------------------------------------------|
---------------------------|----------------------------------------------|
---------------------------|----------------------------------------------|


----------------------------------8--|----6----15-----13-10-11-------------|
--15-13-------------11-13-10---------|-------------16----------13-11-------|
--------15-14-12-14------------------|-------------------------------14-12-|
-------------------------------------|-------------------------------------|
-------------------------------------|-------------------------------------|
-------------------------------------|-------------------------------------|


--------------------|------------------|--------------------------|
--10----------------|------------------|------1-4-1-------1-4-1---|
--------------------|------------------|------------3-----------3-|
--------------------|------------------|--------------------------|
--------------------|------------------|--------------------------|
--------------------|------------------|--------------------------|


------3-6-3-------3-6-3---|------2-5-2-------2-5-2---|
------------3-----------3-|------------4-----------4-|
--------------------------|--------------------------|
--------------------------|--------------------------|
--------------------------|--------------------------|
--------------------------|--------------------------|


-------10--8--6----8--10--|--11----13--15--17------------|
--3----8---7--8----8--12--|--13----13--17--18----18------|
--------------------------|----------------------15--20--|
--------------------------|--------------------------19--|
--------------------------|------------------------------|
--------------------------|------------------------------|


--------------------------------------------------|
-----16-15-13----13----------13-11-10----10-------|
--19----------15----15-14-12----------12----12-11-|
--20----------------------------------------------|
--------------------------------------------------|
--------------------------------------------------|


---------------------------------9-10-12-13-|
---------------------------10-12------------|
--12-10-----------9--10-12------------------|
--------14-12-11----------------------------|
--------------------------------------------|
--------------------------------------------|


--15--13-12-10--9--10--12--13--15--|--17----------12--13--12--13--10--|
-----------------------------------|------14--15----------------------|
-----------------------------------|----------------------------------|
-----------------------------------|----------------------------------|
-----------------------------------|----------------------------------|
-----------------------------------|----------------------------------|


--12--10--10--9---10--13--12------|
------10--11--10--10--15--15--13--|
----------------------------------|
----------------------------------|
----------------------------------|
----------------------------------|


--------------------15h17h18----------------------------------|
--15-------------18-------------------15----15h16h18----------|
--15-------------------------14h15h17----17----------------14-|
--15-------------------------------------------------15h17----|
--------------------------------------------------------------|
--------------------------------------------------------------|


--------------------------------------------------------------------------------
--------------15----------------------------------------------------------------
--15p14h15h17----14-------------14h15h17-------------------14h15----------------
--------------------17p15p13h17----------17p15-------15h17----------------12----
-----------------------------------------------18p17----------------13h15----15-
-----------------------------------------------------------------17-------------


--------------------------------------------------------------------------------
--------------------------------------------------------------------------------
--------------------------------------------------------------------------------
--------------------------------------13-------------------14h16p13----------16h
--13----13h15h17p15p13p12----13-15h17----17-15-13----15h17----------17p15p13----
-----17-------------------15----------------------17----------------------------


--12------------10----|--7-----------------|--------------------------|
--11------------10----|--------------------|--------15--13------------|
--12------------10----|--10----------------|--------16--14------12-10-|
--14------------------|--9-----------------|--------18--14------------|
----------------------|--------------------|--------19----------------|
----------------------|--------------------|--------------------------|


---------------------------------------------------------|
---------------------------------------------------------|
--9---------12----12----------------14-12-14-------------|
---------------15----14-14-12-14-------------15-15-14-15-|
---------------------------------15----------------------|
---------------------------------------------------------|


-----------------------------------------------------12----12----13-12-13----15p
-----12----12----------------13-12-13----15-13-15-12----15----13----------15----
--------14----12-12----12-------------14----------------------------------------
--12----------------15----14----------------------------------------------------
--------------------------------------------------------------------------------
--------------------------------------------------------------------------------


--------------------------------------------------------------------------------
-----15-13-15-12-------------13-12h13----------------12-10h12----10-8h10---9-7h9
--14-------------13-11-13-------------14----------------------------------------
--------------------------14-------------15-14-15-12----------10---------9------
--------------------------------------------------------------------------------
--------------------------------------------------------------------------------


------------------------------------5---------5h7h8--3--|
------------5-------6p5-----8p6p5-----8p6p5-8--------5--|
----7p5p4-----7p5-4-----7-7-------7------------------5--|
--6-------7---------------------------------------------|
--------------------------------------------------------|
--------------------------------------------------------|


--9-----------------------------------------------|
--10--------------14--14--15--------------15--15--|
--9------------14-----14--14-----------14-----14--|
------------14--------14--15-----12-15--------15--|
------12-16-------------------12------------------|
--------------------------------------------------|


--------------------------------------------------|
--12--------------12--12--13--------------13--13--|
--12-----------12-----12--12-----------12-----12--|
--12--------12--------12--14--------14--------14--|
------10-14----------------------15---------------|
------------------------------15------------------|


--------------------------------------------------|
--------------------------------------------------|
--14--------------14--14--15--------------15--15--|
--15-----------15-----15--15--------12-15-----15--|
--15-----12-15--------15--17-----13-----------17--|
------13----------------------13------------------|


--6----------------------------------------------|--------------0-----------|
--8------------------11--10--------------10--10--|--------------------------|
--9--------------15--12--11-----------11-----11--|--------12----------10----|
--------------11-----11--12--------12--------12--|--12----------11----12----|
-----------13--------19---------12---------------|--13----------------------|
-----12-15-------------------10------------------|--------------------------|


---------------------|-------------------||
-----------3---------|--3----------------||
------5----5----3----|--2----------------||
---------------------|-------------------||
---------------------|-------------------||
---------------------|-------------------||
Suggest correction
Give kudos to tab author, rate the tab!
1 2 3 4 5
comments
print report bad tab
guest
You may want to rate the tab now too:
select rating
Wanna post a correction for this tab? Suggest correction