Oops, an error
Loading. Please wait.

J.s. Bach - Toccata Y Fuggue En Dm Tab

version 3
version 3

Whole song

79 views 3 this week
no commentswrite comment
1 2 3 4 5
3 more votes to show rating
add to favorites
launch autoscroll
font size
0
reset
how to read this tab
guitar tuner
Autoscroll
slow
fast
+/-
esc
set tempo
stop
Help us to improve Ultimate-Guitar.com Take our survey!
×
Esta cancion es muy facil de tocar, solo es la melodía si desean
mas canciones de música clásica solo escríbanme a mi correo esp-
ero les guste y espero sus comentarios...

e--7-5-7-------5-3-2-0---0--/
B----------------------4----/
G---------------------------/
D--9-7-9-----------------2--/
A---------------------------/
E------7-----------------0--/

e--7-5-7-------2-3-----0--/---0---/
B-------------------4-----/---0---/
G-------------------------/---0---/
D--9-7-9---------------2--/---2---/
A-------------------------/---2---/
E------7---------------0--/---0---/

e---2-5-8-7-5-7-5-4--/---0---/
B-4------------------/---0---/
G--------------------/---0---/
D--------------------/---2---/
A--------------------/---2---/
E--------------------/---0---/

e---0-2---0-2---0-2---0-2---2-3-5--2-3-5--2-3-5--2-3-5-/
B-4-----4-----4-----4----------------------------------/

e--5-7-8--5-7-8--5-7-8--5-7-8--5-7--/

G--------------------------------0-2---0-2---0-2---0-2-/
D--1-2-4--1-2-4--1-2-4--1-2-4--4-----4-----4-----4-----/

B----0-1---0-1---0-1---0-1---0-1---0--/
G--2-----2-----2-----2-----2-----2----/

e--7-5-8-2-5-8-5-3-7-0-3-7-3-2-5---2-5----0-0-0--3-2-0-/
B--------------------------------4------4--------------/
G------------------------------------------------------/
D---------------------------------------------2------2-/
A------------------------------------------------------/
E---------------------------------------------0------0-/

e-7-5-7-3-2-0---0-2-3-------0---0-2-3--12-10-12-8-7-5-4-5-7/
B--------------4-------0-2-4---4----------------------------/

e-8-0-2-4-5-4-5-7-8-13-13-13-10-10-10-12-12-12-8-8-8-11-11-11-/

e-7-7-7-5-5-5-3-3-3--2-2-2-0-/
Suggest correction
Give kudos to tab author, rate the tab!
1 2 3 4 5
comments
print report bad tab
guest
You may want to rate the tab now too:
select rating
Wanna post a correction for this tab? Suggest correction