Oops, an error
Loading. Please wait.

Js Bach - Bourreé In E Mineur Tab

154 views 1 this week
no commentswrite comment
1 2 3 4 5
3 more votes to show rating
add to favorites
launch autoscroll
font size
0
reset
how to read this tab
guitar tuner
×
Best way to learn
"JS Bach - Bourreé In E Mineur"
Autoscroll
slow
fast
+/-
esc
set tempo
stop
PRIMERA PARTE

						    
e -----0--2--3---2--0------0--2------------------------------------------------------------0--2-
B ---------------------4---------0---2--4--5---3--1--0-------------------0-----0----------------
G -------------------------------------------------------2--0------0--2-----2-----4--2----------
D -------------------------------------------------------------4---------------2----------------
A ---------------0-----2---0-----------------------------0-----2---0----------------------------
E -----3--2--0-------------------3---2-----0---2-----3-------------------3-----------0--2--3--2-


   	             			  
e -3---2--0------0--2-----------------------------------------------|
B -----------4---------0---2--4--5---3--1--0------------------------|
G ---------------------------------------------2--0--------0---0----|
D ---------------------------------------------------4--4------0----|
A -----0-----2---0-----------------------------3-----5--5------2----|
E -0-------------------3---2-----0---2-----3-------------------3----|


						    
e -----0--2--3---2--0------0--2------------------------------------------------------------0--2-
B ---------------------4---------0---2--4--5---3--1--0-------------------0-----0----------------
G -------------------------------------------------------2--0------0--2-----2-----4--2----------
D -------------------------------------------------------------4---------------2----------------
A ---------------0-----2---0-----------------------------0-----2---0----------------------------
E -----3--2--0-------------------3---2-----0---2-----3-------------------3-----------0--2--3--2-


   	             			  
e -3---2--0------0--2-----------------------------------------------||
B -----------4---------0---2--4--5---3--1--0------------------------||
G ---------------------------------------------2--0--------0---0----||
D ---------------------------------------------------4--4------0----||
A -----0-----2---0-----------------------------3-----5--5------2----||
E -0-------------------3---2-----0---2-----3-------------------3----||


SEGUNDA PARTE
     
e -----------------------3------------------------------------------------------------------
B ---0-----3------1--0------3--5---0--3-------------------0--1-------------------------3----
G ------0------2-------------------------5---4--2--1---2---------4--2--2------------------2-
D -------------0-----------------------------0-----2---------2-------------------------0----
A -----------------------2-----3---------0-------------0---------------0--2--0--------------
E ---3--2--2---------3-------------4-----------------------------0--------------3--2--------


e -----3------------------5--------------------------------------------------7-----4---2--0--5---0--3-
B -0-----3--5---0--3---------5--7-------------2------------0--0-----------------7---------------------
G --------------------5-------------6--9--7------4--3-4-3---------------------------------------------
D ------------------------------0-------------2-----4------------------------------2---0--------------
A -----2----3---------0---4-----------------------------------------------6------------------4---0----
E -3------------4-------------------6-----7----------------2--7--6--7--9-----7------------------------


e -2---0-----3-------------5-----------------------------------------------------------
B --------3------3--6--5------5--7---2--5--4--0-----------5----------------------------
G -----------------------------------------------------------4--5-----7-----4-----5----
D -0---------------------------------------------------------------------7-----------5-
A -----3-----2---------3-------------------2-----3--2--0-----------7--9-----3--6--7----
E ---------------3---------7-----5---2--------------------4-----5----------------------


e -------------------------------------------------|
B -------------------------------------------------|
G -2-----4-----0-------------------0---------------|
D ----------4------4--2--1---2--4------4--2--2-----|
A ----4--6-----0---0-----2---0-----2---------------|
E -2-----------------------------------------0-----|


e -----------------------3------------------------------------------------------------------
B ---0-----3------1--0------3--5---0--3-------------------0--1-------------------------3----
G ------0------2-------------------------5---4--2--1---2---------4--2--2------------------2-
D -------------0-----------------------------0-----2---------2-------------------------0----
A -----------------------2-----3---------0-------------0---------------0--2--0--------------
E ---3--2--2---------3-------------4-----------------------------0--------------3--2--------


e -----3------------------5--------------------------------------------------7-----4---2--0--5---0--3-
B -0-----3--5---0--3---------5--7-------------2------------0--0-----------------7---------------------
G --------------------5-------------6--9--7------4--3-4-3---------------------------------------------
D ------------------------------0-------------2-----4------------------------------2---0--------------
A -----2----3---------0---4-----------------------------------------------6------------------4---0----
E -3------------4-------------------6-----7----------------2--7--6--7--9-----7------------------------


e -2---0-----3-------------5-----------------------------------------------------------
B --------3------3--6--5------5--7---2--5--4--0-----------5----------------------------
G -----------------------------------------------------------4--5-----7-----4-----5----
D -0---------------------------------------------------------------------7-----------5-
A -----3-----2---------3-------------------2-----3--2--0-----------7--9-----3--6--7----
E ---------------3---------7-----5---2--------------------4-----5----------------------


e -------------------------------------------------||
B -------------------------------------------------||
G -2-----4-----0-------------------0---------------||
D ----------4------4--2--1---2--4------4--2--2-----||
A ----4--6-----0---0-----2---0-----2---------------||
E -2-----------------------------------------0-----||
Suggest correction
Give kudos to tab author, rate the tab!
1 2 3 4 5
comments
print report bad tab
guest
You may want to rate the tab now too:
select rating
Wanna post a correction for this tab? Suggest correction