Oops, an error
Loading. Please wait.

Kojo No Tsuki Tab

142 views 3 this week
no commentswrite comment
1 2 3 4 5
3 more votes to show rating
add to favorites
launch autoscroll
font size
0
reset
how to read this tab
guitar tuner
×
Best way to learn
"Kojo No Tsuki"
Autoscroll
slow
fast
+/-
esc
set tempo
stop
Ke roio Banda!!! ps aki les dejo una tablatura de una clasica
Japonesa ke en vdd se oie muy bn no c si sea muy konosida
pero ahi les va :

e----0---5-6-5-----0-(0)----------------0-1-0---------------
B------8------------------3---3-------3--------3------------
G--7------------------------3---2---2-------------3-3-2-0-2-
D-7-------------7-------------------------------------------
A-----------------------------------------------------------
E-----------------------------------------------------------
  C 1/2III__________________________/
e----------3----5---6---5----3-------------------------
B-3---3-------3---3---3---3----3---3---4---4---3---1---
G---0---0--0-----------------0---0-------0---0---0---0-
D-0-----------------0------------------0-------0-------
A------------------------------------------------------
E------------------------------------------------------
                    C 1/2III_______________________/
e----------------------------3---5---6---5---3---------
B-3-----------------3---3------3---3---3---3---3---3---
G---0---0---0---0-----0---0--0---------------0---0-----
D-----0---0---0-----0----------------0-----------------
A------------------------------------------------------
E-3----------------------------------------------------

e---------------------------------------------------------
B-4---1---3-----3---------------------------------4---4---
G---0---0---0-----0---0---0---0--3-----3-2---0------0---0-
D-0-------0---0-----0---0---0------0-0-----0---0--0-------
A---------------------------------------------------------
E-----------------3--------------3------------------------

e---------------------------------------------
B-3--------1---3---4---4----3-----------------
G---0---0----0---0---0---0----0---0---0---0---
D-----0------------0------------0---0---0---0-
A----------3----------------------------------
E-3-------------------------3-----------------
  C 1/2III________________________/
e----------3---5---6---5---3------------------------
B-3---3------3---3---3---3---3---3--4---1---3-----3-
G---0---0--0---------------0---0------0---0---0-----
D-0----------------0----------------0-------0---0---
A---------------------------------------------------
E---------------------------------------------------

e-----------------------------------5-6-5-3---3---
B---------------------------------3---------4---3-
G-0---0---0---0------0h2-0---0--------------------
D---0---0---0------0h1-----1---0------------------
A----------------3--------------------------------
E-3-----------------------------------------------

e-6-5-3---3-----5--3-6-5-3--3--
B-------4---3---8--------------
G---------------7-----------0--
D------------------------------
A------------------------------
E------------------------------
Suggest correction
Give kudos to tab author, rate the tab!
1 2 3 4 5
comments
print report bad tab
guest
You may want to rate the tab now too:
select rating
Wanna post a correction for this tab? Suggest correction