Oops, an error
Loading. Please wait.

La Cumparsita Tab

301 views 1 this week
no commentswrite comment
1 2 3 4 5
3 more votes to show rating
add to favorites
launch autoscroll
font size
0
reset
how to read this tab
guitar tuner
×
Best way to learn
"La Cumparsita"
Autoscroll
slow
fast
+/-
esc
set tempo
stop
LA CUMPARSITA
GERARDO MATOS R.
TRANSCRIPCION: JULIAN MAGDALENA

|7---8---10--8---7-----------------------7---8---7---------------|
|--------------------10--8---7---8---10--------------10--8---7---|
|----------------------------------------------------------------|
|----------------------------------------------------------------|
|----------------------------------------------------------------|
|----------------------------------------------------------------|

|0---2---3---2---0-----------------------------------------------|
|--------------------3---1---0-----------------------------------|
|--------------------------------2---0---------------------------|
|----------------------------------------4---2---0---------------|
|----------------------------------------------------3---2---0---|
|----------------------------------------------------------------|

|---5-------2----------------------|
|0--4-------4-------4--------------|
|2--2-------2-------2--------------|
|1------------------4--------------|
|2--2-------2-------2--------------|
|--------------------------2-------|


|----------------------------------------------------------------|
|--------0-------1-------0-----------------------0---------------|
|----------------2---------------3---------------2---------------|
|----------------1---------------4---------------1---------------|
|2-------------------------------2---------------2-------2-------|
|----------------------------------------------------------------|


|----------------7-------3--------0----------------------|
|0---------------8-------5--------0----------------------|
|0-------------------------------------------------------|
|2-------------------------------------------------------|
|--------------------------------------------------------|
|-------------------------------------------0------------|


|----------------------------------------------------------------|
|--------0-------1-------0-----------------------0---------------|
|----------------0---------------3---------------0---------------|
|----------------2---------------2---------------2---------------|
|----------------2---------------2-------------------------------|
|--------------------------------0-------------------------------|


|----------------5---------------2-------------------------------|
|0---------------4---------------4---------------4---------------|
|2---------------2---------------2---------------2---------------|
|1-----------------------------------------------4---------------|
|2---------------2---------------2---------------2---------------|
|--------------------------------------------------------2-------|

|----------------------------------------------------------------|
|--------0-------1-------0-----------------------0---------------|
|----------------2---------------3---------------2---------------|
|----------------1---------------4---------------1---------------|
|--------------------------------2---------------2-------2-------|
|----------------------------------------------------------------|


|----------------7---------------3---------------0--------|
|0---------------8---------------5---------------0--------|
|0--------------------------------------------------------|
|2--------------------------------------------------------|
|---------------------------------------------------------|
|----------------------------------------------------0----|


|----------------------------------------------------------------|
|--------0-------1-------0-----------------------0---------------|
|----------------0---------------3---------------0---------------|
|----------------2---------------2---------------2---------------|
|----------------2---------------2-------------------------------|
|--------------------------------0-----------------------0-------|


|8----12----11--12------11--12--11--12--|
|10---13----13--13------13--13--13--13--|
|---------------------------------------|
|---------------------------------------|
|---------------------------------------|
|---------------------------------------|


|--------7------12-11-12--11-12-11-12----11---------|
|--------8------13-13-13--13-13-13-13----10---------|
|---------------------------------------------------|
|---------------------------------------------------|
|---------------------------------------------------|
|---------------------------------------------------|


|7---5--3------2-------------------------0--------|
|8---7--5------4------------4-----5------0--------|
|----------------------------------------0--------|
|---------------------------4-----2------2--------|
|----------------------------------------2--------|
|----------------------------------------0--------|


|---------------------------------------------------------------|
|---------------------------------------------------------------|
|-----------------------5-------4-------2-----------------------|
|-----------------------------------------------5-------4-------|
|-----------------------3-------2-------0-----------------------|
|-----------------------------------------------3-------2-------|


|--------------------------12------------------------------------|
|--------------------------12------------------------------------|
|--------------------------12------------------------------------|
|2---------------------------------------------------------------|
|----------------------------------------------------------------|
|0---------------------------------------------------------------|

|0-------2-------3-----------------------0---------------2---3---|
|----------------------------------------------------------------|
|----------------------------------------------------------------|
|----------------2-----------------------------------------------|
|----------------------------------------------------------------|
|0---------------------------------------------------------------|


|2-------------------------------0-----|
|----------------0---------------0-----|
|--------------------------------0-----|
|----------------2---------------2-----|
|--------------------------------2-----|
|0-------------------------------0-----|


|0-0-0-0------------|
|-------3-1-3-1-----|
|---------------2---|
|-------------------|
|-------------------|
|-------------------|


|---------------------------------------|
|--------------------------------10-----|
|8---------------8---------------8------|
|7---------------7---------------9------|
|9---------------9----------------------|
|7---------------7---------------7------|


|--------2---2---2-----------------------------------------------|
|----------------4-------5---5---5-------4---4---4---------------|
|----------------2---------------2---------------2---------------|
|9-------------------------------2---------------4---------------|
|----------------2---------------2---------------2---------------|
|7---------------------------------------------------------------|


|--------------------------------7-------------------------------|
|--------1---1---1-------0-------7-------------------------------|
|--------------------------------8---------------8---------------|
|--------------------------------9---------------7---------------|
|2-------------------------------9---------------9---------------|
|--------------------------------7-------------------------------|


|--------5-----------------------5---------------3-------2-------|
|----------------4---------------4-------------------------------|
|----------------2---------------2-------------------------------|
|----------------4---------------4-------------------------------|
|2---------------2---------------2---------------2---------------|
|----------------------------------------------------------------|


|0---------------7-----------------------------------------------|
|--------------------------------0-------------------------------|
|--------------------------------0-------------------------------|
|----------------------------------------------------------------|
|------------------------------------------------2---------------|
|0---------------0---------------0-------------------------------|


|0-------2-------3-----------------------0---------------2---3---|
|----------------------------------------------------------------|
|----------------------------------------------------------------|
|----------------2---------------2-------------------------------|
|------------------------------------------------2---------------|
|0---------------------------------------------------------------|


|2-------------------------------0-------------------0-----------|
|----------------0---------------0---------------0-------0-------|
|----------------0---------------0-----------0---------------0---|
|----------------2-----------------------2-----------------------|
|----------------------------------------------------------------|
|0-------------------------------0-------------------------------|


|0----12-12--12--12------10---8--10------8---------------7---7---|
|0---------------------------------------------------------------|
|0---------------------------------------------------------------|
|----------------------------------------------------------------|
|----------------------------------------------------------------|
|0---------------------------------------------------------------|


|5---7---5---7----|
|5----------------|
|5----------------|
|-----------------|
|-----------------|
|-----------------|


|--------8-----------------------12------11------12------7-------|
|10------10--------------10--------------------------------------|
|9-----------------------9---------------------------------------|
|----------------------------------------------------------------|
|----------------------------------------------------------------|
|--------------------------------0---------------0---------------|


|--------7----------------------|
|8-------8---------------8------|
|9-----------------------9------|
|-------------------------------|
|-------------------------------|
|-------------------------------|


|--------7----------------------7--------------------------------|
|--------7-------7--------------7--------10--------------8---7---|
|--------8-------8-------8------8--------8-----------------------|
|----------------7-------7------7--------7-----------------------|
|------------------------9------9--------------------------------|
|-------------------------------7--------------------------------|


|0-----------------------------------------------12--------------|
|------------------------------------------------12--------------|
|------------------------------------------------12--------------|
|----------------------------------------------------------------|
|----------------------------------------------------------------|
|0---------------------------------------------------------------|


|0---------------0-------2---------------3---------------2-------|
|--------4-------------------------------------------------------|
|----------------------------------------------------------------|
|2-------1-------2-------4---------------5---------------4-------|
|----------------------------------------------------------------|
|----------------------------------------------------------------|


|0-------0---2---4---2---4---5---7-------------------------------|
|----4-------------------------------------------0---------------|
|------------------------------------------------0---------------|
|----------------------------------------------------------------|
|----------------------------------------------------------------|
|0-------------------------------0-------------------------------|


|--------------------------------0-------------------------------|
|1-------0-------1-------3-------1-----------------------1-------|
|----------------2---------------2-------------------------------|
|----------------2---------------2---------------2---------------|
|0-------------------------------0-------------------------------|
|----------------------------------------------------------------|


|---------7------|
|0--------7------|
|---------8------|
|---------9------|
|---------9------|
|0--------7------|


|0---------------0-------2---------------3---------------2-------|
|--------4-------------------------------------------------------|
|----------------------------------------------------------------|
|2-------1-------2-------4---------------5---------------4-------|
|----------------------------------------------------------------|
|----------------------------------------------------------------|


|0-------0---2---4---2---4---5---7-------------------------------|
|----4-------------------------------------------0---------------|
|------------------------------------------------0---------------|
|----------------------------------------------------------------|
|----------------------------------------------------------------|
|0-------------------------------0-------------------------------|


|--------------------------------0-------------------------------|
|1------0-------1-------3--------1----------------------1--------|
|---------------2----------------2-------------------------------|
|---------------2----------------2---------------2---------------|
|0-------------------------------0-------------------------------|
|----------------------------------------------------------------|


|--------------------------------0-------2-------3-------5-------|
|0-------0-------2-------4---------------------------------------|
|--0-------------------------------------------------------------|
|----------------------------------------------------------------|
|----------------------------------------------------------------|
|----------------------------------------------------------------|


|7-------------------------------8-----------------------7-------|
|8---------------8---------------8-------------------------------|
|9---------------9---------------9-------------------------------|
|----------------------------------------------------------------|
|----------------------------------------------------------------|
|------------------------------------------------0---------------|


|7-------------------------------------------8---7---------------|
|7-------------------------------10--------------7---------------|
|8-------------------------------8---------------8---------------|
|7---------------7---------------7-------------------------------|
|7---------------9---------------9-------------------------------|
|7---------------7---------------7-------------------------------|


|--------------------------------7-------------------------------|
|----------------10--------------7-----------------------10------|
|----------------8---------------8-----------------------8-------|
|----------------9---------------------------------------9-------|
|----------------------------------------------------------------|
|7-------------------------------7---------------7---------------|


|5-------------------------------0-----------7-------------------|
|------------------------8-------8---------------10--------------|
|----------------0---------------0---------------0---------------|
|----------------9-------------------------------9---------------|
|----------------------------------------------------------------|
|0---------------------------------------------------------------|


|------0---------------------------------------0-------|
|------8---------------10----------------------8-------|
|----------------------0---------------0---------------|
|------9---------------9---------------9---------------|
|------------------------------------------------------|
|0-----------------------------------------------------|


|------------------------------------------------------|
|8-------------7-------7-----------10--8---------------|
|------8-------------------------------8---------------|
|------7-------------------------------7---------------|
|------------------------------------------------------|
|7-----7---------------7---------------7---------------|


|--------2---3---2----------------------------------|
|--------4---------------5------------------4-------|
|--------2---------------2--------------------------|
|------------------------4--------------------------|
|2-------2---------------2----------2---------------|
|---------------------------------------------------|


|0--------------------------------------------|
|0----1-------0-------------------------------|
|0--------------------2-------0---------------|
|-------------------------------------4-------|
|-----3-------2-------0-----------------------|
|0----------------------------3-------2-------|


|-----0--------------------------|
|-----0------1-0-1-0-------------|
|-----0--------------2-0-2-0-----|
|2----2----------------------4---|
|-----2--------------------------|
|0----0--------------------------|


|----7-------------------------------12---|
|----8---------10-8-7----------------12---|
|----9-------------------8---9-------12---|
|2---9------------------------------------|
|----7-------------------9----------------|
|0---7------------------------------------|
Suggest correction
Give kudos to tab author, rate the tab!
1 2 3 4 5
comments
print report bad tab
guest
You may want to rate the tab now too:
select rating
Wanna post a correction for this tab? Suggest correction