Oops, an error
Loading. Please wait.

La Grande Tab

43 views 1 this week
no commentswrite comment
1 2 3 4 5
3 more votes to show rating
add to favorites
launch autoscroll
font size
0
reset
how to read this tab
guitar tuner
Autoscroll
slow
fast
+/-
esc
set tempo
stop
Help us to improve Ultimate-Guitar.com Take our survey!
×
Tradicional

INTRO

CHORUS
e-10~~~---12r10-12r10--12r10~~--------10-10-10-151515-13-11-----------------------
B-------------------------------12-13-----------------------11--8h9h10-8--10-12---
G---------------------------------------------------------------------------------
D---------------------------------------------------------------------------------
A---------------------------------------------------------------------------------
E---------------------------------------------------------------------------------

e-10~~~---12-10--12-10~~--------------10-10-10-151515-13-11-----------------------
B-------------------------------12-13-----------------------11--8h10-8--10-8~~----
G---------------------------------------------------------------------------------
D---------------------------------------------------------------------------------
A---------------------------------------------------------------------------------
E---------------------------------------------------------------------------------

[part 1]
 ----------------------------------|-------------------------------------
 ----------------------------------|-------------------6-----------------
 --------------------5-------------|-5~~-7-8~~---5-7-8---8-7-5-7-8~~-----
 --5~~-7-8~~---5-7-8---8-7-5-7-8~~-|-------------------------------------
 ----------------------------------|-------------------------------------
 ----------------------------------|-------------------------------------

 -----------------------------------------|------------------------------
 -----------------------------------------|------------------------------
 -8~~~-6---8~~~-6---8-6---8-6---8~\\\\\3~-|--3///8~~--5-7-8-10-8-7~~-----
 --------9--------9-----9-----9-----------|------------------------------
 -----------------------------------------|------------------------------
 -----------------------------------------|------------------------------

[part 2]

 ----8~~--7-8-7----7----------------|--12-15------12-15-------12-15----12-15----12-13-15\\\10~~--
 --8------------10---10-8~-////15-~~|--------15~~-------15~~--------15-------15------------------
 -----------------------------------|------------------------------------------------------------
 -----------------------------------|------------------------------------------------------------
 -----------------------------------|------------------------------------------------------------
 -----------------------------------|------------------------------------------------------------

 -11///18~~~--17-18-17-15-17-15-13-15-13~-11----------
 -----------------------------------------------------
 -----------------------------------------------------
 -----------------------------------------------------
 ----------------------------------------------------- 
 -----------------------------------------------------

CHORUS
e-10~~~---12-10--12r10~~--------------10-10-10-151515-13-11-----------------------
B-------------------------------12-13-----------------------11--8h10-8--10-8~~----
G---------------------------------------------------------------------------------
D---------------------------------------------------------------------------------
A---------------------------------------------------------------------------------
E---------------------------------------------------------------------------------


REPEAT PARTS 1 and 2

CHORUS
e-10~~~---12-10--12-10~~--------------10-10-10-151515-13-11-15~--15h17-15-17-15~~----
B-------------------------------12-13------------------------------------------------
G------------------------------------------------------------------------------------
D------------------------------------------------------------------------------------
A------------------------------------------------------------------------------------
E------------------------------------------------------------------------------------
Suggest correction
Give kudos to tab author, rate the tab!
1 2 3 4 5
comments
print report bad tab
guest
You may want to rate the tab now too:
select rating
Wanna post a correction for this tab? Suggest correction