Oops, an error
Loading. Please wait.

Lament For Owen Roe O´neill Tab

154 views 1 this week
no commentswrite comment
1 2 3 4 5
3 more votes to show rating
add to favorites
×
Save as Personal and add changes to this tab that will be seen only by you. Learn more ›
×
You can save this tab as Personal to edit and correct it or add notes. All changes will be seen only by you. Learn more »
save as personal
new!
launch autoscroll
font size
0
reset
how to read this tab
guitar tuner
Autoscroll
slow
fast
+/-
esc
set tempo
stop
Lament for Owen Roe O'Neill
O'Carolan / John Renbourn
Tabledited by davlefeb@
Accordage : E A E A C E       Signature Rythmique: 4/4

  e e e e Q   | e    e e e e h   e e    q e e e e     e e    e     e   | e e e    e e e e q s   e e    q e e e |   e e    q e e e e e e   
||--------0--------|-----0h2-3---2h3--|-5p0-0--------------|---------------3p0--|---------0----------|------------------|----------------|
|*----0h2-0-----2--|-0h2-0------------|-0-----2-0----------|--------------------|-----0h2-0-----2-0--|-2p0--------------|-0--------------|
||0h2---2-------2--|-0h2-----2--------|-0-----2-0-----2p0--|-2-----0-----2------|-0h2-0h2---0---2-0--|-0---2p0-----2-5--|-0-2-0-2p0-2-5--|
||0---------0------|-0-------0--------|-0---------0--------|---------3-0--------|-0-------------0----|-1-------3--------|-0-----3---3----|
|*0-----------0----|-0----------------|-0-----------0------|---2----------------|-0-----------0------|-0-------2--------|-0---------2----|
||-----------------|-----------0------|--------------------|-----0--------------|--------------------|-----------0------|----------------|
  h         e e      q       h e        q         s s          s s   e e          h           s q      h       e e        H     q   q     

  q E s q q  >3e e e e Q   | e    e e e e h   e e    q s s s e e q e e e    e e e   | q    Q s e e e e e e    q s e e e e |      | e | e e e |     
|---------12|||--------0--------|-----0h2-3---2h3--|-5-7p5p4-5-0---0------|--------------|------------------|------------------|---0-------3------|
|-0---------*|*----0h2-0-----2--|-0h2-0------------|-0-----------5---2-0--|-----------2--|-4-5p4---2-2-2----|-0-2p0------------|---9-------4------|
|-0-2-0-0-12|||0h2---2-------2--|-0h2-----2--------|-0-----------0--------|-2-0-0-----2--|-3-----3-2-2-2-2--|-0-----0-2-0------|-------0-2--------|
|-0-----0---|||0---------0------|-0-------0--------|-0---------------1----|-3---0h3-3----|-3-------------3--|-0-----------3-0--|-8---0---------3--|
|-0-5---0---*|*0-----------0----|-0----------------|-0-----------5--------|-----3---2----|-3----------------|-0-------2--------|------------------|
|-----------|||-----------------|-----------0------|----------------------|--------------|---------3-3-3----|---------0--------|-------------0----|
  q q   q      h         e e      q       h e        q           q   e      e   e e q      Q       e e e e    q       e   e e    e   e       e e   

  e     |   q q  >3Q e Q e    e e e e h   
|---------------||-----7---|---7--7---|
|---------------*|-5--77-|---75-----|
|-0---------0-0-||-557---|-5------5-|
|-0---3-0-4-0-0-||-5--7---|-----59---|
|-0-2---3-2-0-0-*|-5--7---|------------|
|---------------||----------|------------|
  e s s e e q q    Q   Q          e e     


Created with TablEdit 
Suggest correction
Give kudos to tab author, rate the tab!
1 2 3 4 5
comments
print report bad tab
guest
Wanna post a correction for this tab? Suggest correction