Oops, an error
Loading. Please wait.

Leo Braguer - Estudio Vi Tab

62 views 3 this week
no commentswrite comment
1 2 3 4 5
3 more votes to show rating
add to favorites
launch autoscroll
font size
0
reset
how to read this tab
guitar tuner
×
Best way to learn
"Leo Braguer - Estudio VI"
Autoscroll
slow
fast
+/-
esc
set tempo
stop
este es un estidio (el primero ke me arendi) 
espero les guste 
P.D. si te gusta la musica clasica comunicate conmigo

---0-1---0---------------------------------------------
-------3---1-3-0-1---3-0-1---0-------------------------
-------------------2-------2---1-----------------------
---------------------------------2-----0-2---0-------0-
-----------------------------------2-3-----3---2-3-0---
-0-----------------------------------------------------

-------------------------------------------------------
-------------------------------------------------------
------------------------------------------1-2-----1-2--
--------------------------0-2-------0-2-4-----2-4------
--2-3-0-2---0-------0-2-3-----0-2-3--------------------
----------4---0-2-4------------------------------------

-------0---------0-2-4-5-0---0---0---0---0---0---0---0-
-0-1-3-----0-1-3-----------4---3---0---1-------0-------
---------2---------------------------------2-------1---
-------------------------------------------------------
-------------------------------------------------------
-------------------------------------------------------

-------------------------------------------------------
--------------------1-0-3-1----0-----------------------
-2--------------------------2----1-2--2-3--------------
---2-3-0-2-2-3-0-2------------------------0-2-2-3-0-2--
------------------------------------------------------3
-------------------------------------------------------

-------------------------------------------------------
-------------------------------------------------------
-------------------------------------------------------
---0------------------------------------2--------------
-2---0-3-0-2---0---3-2-0---3-2-0---3-0-----------------
-------------4---0-------0-------0------0--------------
Suggest correction
Give kudos to tab author, rate the tab!
1 2 3 4 5
comments
print report bad tab
guest
You may want to rate the tab now too:
select rating
Wanna post a correction for this tab? Suggest correction