Oops, an error
Loading. Please wait.

Luis Salinas - Ahi Va Tab

43 views 1 this week
no commentswrite comment
1 2 3 4 5
3 more votes to show rating
add to favorites
launch autoscroll
font size
0
reset
how to read this tab
guitar tuner
×
Best way to learn
"Luis Salinas - Ahi Va"
Autoscroll
slow
fast
+/-
esc
set tempo
stop
-------------------------------------------------------
-----/15----------------/15----------------------------
--------14------------------14-------------------------
-----------15---17--------------15----17/18/17---------
-------------------------------------------------------
-------------------------------------------------------

-------------------------------------------------------
----/15--------------------/15----------------------------
-------14-----------------------14-------------------------
--------------18----17--------------15----17/19/17-----
----------17----17-------------------------------------
-------------------------------------------------------

PIANO Y GUITARRA
-------------------------------------------------------
-----------------------10------------------------------
------------9--10--12--------12--10--9-----------------
-------12----------------------------------------------
----12-------------------------------------------------
-------------------------------------------------------

-------------------------------------------------------
----------------------10--11--11/12--10----------------
------------9--10--12----------------------------------
--------12---------------------------------------------
----12-------------------------------------------------
-------------------------------------------------------

-------------------------------------------------------
----------------------10-------------------------------
-----------9--10--12------12--10--10--9-9/10/9---------
------12-----------------------------------------------
--12---------------------------------------------------
-------------------------------------------------------

-------------------------------------------------------
---------------------10--------------------------------
----------9--10--12-----------------------------------------
------12-------------------------------------------------
--12-----------------------------------------------------
-------------------------------------------------------

----------------------------8--------------------------
--------------------10---8-----11--10--8--7/8----------
---------9--10--12-------------------------------------
-----12------------------------------------------------
--12---------------------------------------------------
-------------------------------------------------------

SOLO GUITARRA
-------------------------------------------------------
-------------------------------------------------------
-------------------------------------------------------
------------------------------------2/3----------------
--3/5--5--3--3/5--5--3--3/5--5--3----------------------
-------------------------------------------------------

-------------------------------------------------------
-------------------------------------------------------
-------------------------------------------------------
-------------------------------------------------------
--5--7--8--8-------5--7--8^7^5--8----------------------
--------------5--------------------5---3/1-------------

-------------------------------------------------------
-------------------------------------------------------
-------------------------------------------------------
------------3--5/6--3^5--------------------------------
--3/5--3/5---------------------------------------------
-------------------------------------------------------

-------------------------------------------------------
-------------------------------------------------------
-------------------------------------------------------
--5--7--8--7--5--8--7--7--8------5--5/3---------------
-----------------------------7-----------5-------------
--------------------------------------------5/2--------

-------------------------------------------------------
-------------------------------------------------------
-------------------------------------------------------
-------------------------------------------------------
-----5--7------5/6/5--7-----5/6--5/6--5----------------
--8--------8-------------8-----------------------------

-------------------------------------------------------
-------------------------------------------------------
-------------------------------------------------------
--------------5--7--7--8-------7-----------------------
--5--7--8--8-------------8--8-----8--------------------
-------------------------------------------------------

-----------------------------------------------------------------------------
-----------------------------------------------------------------------------
-----------------------------------------------------------------------------
-----------5--7--------------------------------------------------------------
--5--7--8--------8--7----5--7--8--7--5--8--7--5--7--3--3--5--1--0--1--0------
-------------------------------------------------------------------------1--1

-------------------------------------------------------
-------------------------------------------------------
-------------------------------------------------------
----------------------------8^7--8^7--8^7--8^7--8--------------
--------------------------------------------------7----
--1^0--1^0--1^0--1/5/1/5-------------------------------

-------------------------------------------------------
-------------------------------------------------------
-------------------------------------------------------
----------------3--3-----------------------------------
--8--7--5--3/5--------5--5---3-------------------------
--------------------------------5/0-------------------

SOLOS DE PIANO, PERCUSION Y BAJO

VUELVE GUITARRA DEL MAESTRO

----------12--13^12--13--15^13--17--13^15--------------
------15-----------------------------------------------
--14---------------------------------------------------
-------------------------------------------------------
-------------------------------------------------------
-------------------------------------------------------

--15^13------13-------13----[----------13--/12--13/12--
---------15-------15--------[--13--15------------------
----------------------------[--------------------------
----------------------------[--------------------------
----------------------------[--------------------------
----------------------------[--------------------------

----------12--13--12--12/15--15--15--/12--12-----------
------15--------------------------------------12/15----
--14---------------------------------------------------
-------------------------------------------------------
-------------------------------------------------------
-------------------------------------------------------
EL RESTO ES LO QUE CONSIDERO 'INSACABLE', EXEPTUANDO
EL FINAL, QUE VUELVE A HACER LO MISMO QUE HACE EL
PIANO AL PRINCIPIO. ESPERO QUE LES GUSTE, Y SI HAY
MAS ADMIRADORES DE SALINAS, ANIMENSE A ESCRIBIR ALGUNA
CANCION QUE SEPAN.... VIVA EL LATIN JAZZ FUSION!!!!
Suggest correction
Give kudos to tab author, rate the tab!
1 2 3 4 5
comments
print report bad tab
guest
You may want to rate the tab now too:
select rating
Wanna post a correction for this tab? Suggest correction