Oops, an error
Loading. Please wait.

Marcha Fúnebre Tab

307 views 3 this week
no commentswrite comment
1 2 3 4 5
3 more votes to show rating
add to favorites
launch autoscroll
font size
0
reset
how to read this tab
guitar tuner
×
Best way to learn
"Marcha Fúnebre"
Autoscroll
slow
fast
+/-
esc
set tempo
stop
MARCHA FUNEBRE

e -----------------------
B -----------------------
G -----------------------
D -----------------------
A 0--0--00-----0--0--00--
E -----------------------

e -----------------------
B -----------------------
G -----------------------
D -----------------------
A 0--0--00--3-32-20---0--
E ------------------3----

e -----------------------
B -----------------------
G -----------------------
D 3-2-0-------3-2-0------
A ------3-2-0-------3-2-0
E -----------------------

e -----------------------
B -----------------------
G -----------------------
D -----------------------
A 0--0--00--3-32-20---0--
E ------------------3----

e -----------------------
B -----------------------
G -----------------------
D 0--0--00--3-32-20---0--
A ------------------3----
e -----------------------

e -----------------------
B -----------------------
G 3-2-0-------3-2-0------
D ------3-2-0-------3-2-0
A -----------------------
e -----------------------

e -----------------------
B -----------------------
G -----------------------
D -----------------------
A 0--0--00--3-32-20---0--
E ------------------3----


ESTA TRANSCRIPSION ES SENCILLA YA QUE SOLO CAMBIA MUY POCO
Y SI DA BUEN TONO ESCUCHENLA Y SI HAY UNA MODIFICACION MEJOR
PUES ENVIENLA
Suggest correction
Give kudos to tab author, rate the tab!
1 2 3 4 5
comments
print report bad tab
guest
You may want to rate the tab now too:
select rating
Wanna post a correction for this tab? Suggest correction