Oops, an error
Loading. Please wait.

Marcha Nupcial 2 Tab

100 views 1 this week
no commentswrite comment
1 2 3 4 5
3 more votes to show rating
add to favorites
×
Save as Personal and add changes to this tab that will be seen only by you. Learn more ›
×
You can save this tab as Personal to edit and correct it or add notes. All changes will be seen only by you. Learn more »
save as personal
new!
launch autoscroll
font size
0
reset
how to read this tab
guitar tuner
Autoscroll
slow
fast
+/-
esc
set tempo
stop
esta es otra de las canciones de boda.
se llama Lohengrin (Bridal Chorus)y es de
Wagner...

e|-----1--1--1--------3--0--1---------
B|-1---1--1--1----1---1--1--1---------
G|-----2--2--2--------3--3--2---------
D|-3--------------3---------3---------
A|------------------------------------
E|------------------------------------

e|-----1--6-6--5--3-1--0-1--3---------
B|-1---1---------------0-0--1---------
G|-----2--7-7--5--4-2--0-0--3---------
D|-3------8-8-------3-------2---------
A|------------------------------------
E|------------------------------------

e|-----1--1--1--------3--0--1---------
B|-1---1--1--1----1---1--1--1---------
G|-----2--2--2--------3--3--2---------
D|-3--------------3---------3---------
A|------------------------------------
E|------------------------------------

e|----1--5--8---5--1-----3--4-1-------
B|-1--1---------------3--1--1---------
G|----2--5--5---2--2--4-------2-------
D|-3-----7--7---0--0--3--2--2-3-------
A|------------------------------------
E|------------------------------------

O mas sencilla así:

e|-----1--1--1--------3--0--1---------
B|-1--------------1-------------------
G|------------------------------------
D|------------------------------------
A|------------------------------------
E|------------------------------------

e|-----1--6-6--5--3-1--0-1--3---------
B|-1----------------------------------
G|------------------------------------
D|------------------------------------
A|------------------------------------
E|------------------------------------

e|-----1--1--1--------3--0--1---------
B|-1--------------1-------------------
G|------------------------------------
D|------------------------------------
A|------------------------------------
E|------------------------------------

e|----1--5--8---5--1-----3--4-1-------
B|-1------------------3---------------
G|------------------------------------
D|------------------------------------
A|------------------------------------
E|------------------------------------

MI E-MAIL: juanda0612@
Suggest correction
Give kudos to tab author, rate the tab!
1 2 3 4 5
comments
print report bad tab
guest
Wanna post a correction for this tab? Suggest correction