Oops, an error
Loading. Please wait.

Marcha Turca Tab

version 1
version 1

Whole song

265 views 3 this week
no commentswrite comment
1 2 3 4 5
3 more votes to show rating
add to favorites
launch autoscroll
font size
0
reset
how to read this tab
guitar tuner
Autoscroll
slow
fast
+/-
esc
set tempo
stop
Help us to improve Ultimate-Guitar.com Take our survey!
×
e||------------------|--------------0--|--1--0-----0--|
B||---0-----------1--|--3--1--0--1-----|--------4-----|
G||·-----2--1--2-----|-----------------|--------------|
D||·-----------------|-----------------|--------------|
A||------------------|-----------------|--------------|
E||------------------|-----------------|--------------|

e||---7--5--4--5--|--7--5--4--5--|--8--|--5--8--7--5--|
B||---------------|--------------|-----|--------------|
G||---------------|--------------|-----|--------------|
D||---------------|--------------|-----|--------------|
A||---------------|--------------|-----|--------------|
E||---------------|--------------|-----|--------------|

e||----3--5--7--5--|--3--5--7--5--|---3---2---0------||
B||----------------|--------------|------------------||
G||----------------|--------------|-----------------·||
D||----------------|--------------|-----------------·||
A||----------------|--------------|------------------||
E||----------------|--------------|------------------||


e||---0--1--3--3--|--5--3--1--0-------||
B||---------------|--------------3----||
G||·--------------|------------------·||
D||·--------------|------------------·||
A||---------------|-------------------||
E||---------------|-------------------||


e||---------0--0--|--1--0-------------||
B||---1--3--------|--------3--1--0----||
G||·--------------|------------------·||
D||·--------------|------------------·||
A||---------------|-------------------||
E||---------------|-------------------||


e||------------------|--------------0--|--1--0-----0--|
B||---0-----------1--|--3--1--0--1-----|--------4-----|
G||------2--1--2-----|-----------------|--------------|
D||------------------|-----------------|--------------|
A||------------------|-----------------|--------------|
E||------------------|-----------------|--------------|

e||---7--5--4--5--|--7--5--4--5--|--8--|--5--7--8--7--|
B||---------------|--------------|-----|--------------|
G||---------------|--------------|-----|--------------|
D||---------------|--------------|-----|--------------|
A||---------------|--------------|-----|--------------|
E||---------------|--------------|-----|--------------|

e||----5--4--5--0--|--1--------|---------------------||
B||----------------|-----3--1--|--1--0-----0---------||
G||----------------|-----------|--------2-----2------||
D||----------------|-----------|---------------------||
A||----------------|-----------|---------------------||
E||----------------|-----------|---------------------||


e||---5--7--9--|--5--7--9--7--|--5--4--2--4--|--5--7--4--0---|
B||------------|--------------|--------------|---------------|
G||·-----------|--------------|--------------|---------------|
D||·-----------|--------------|--------------|---------------|
A||------------|--------------|--------------|---------------|
E||------------|--------------|--------------|---------------|

e||---5--7--9--|--5--7--9--7--|--5--4--0--7--|--4--0--5-----||
B||------------|--------------|--------------|--------------||
G||------------|--------------|--------------|-------------·||
D||------------|--------------|--------------|-------------·||
A||------------|--------------|--------------|--------------||
E||------------|--------------|--------------|--------------||


ESPERO QUE LES GUSTE


SALU2 A TODOS EN ESPECIAL A LOS HINCHAS CRXZADOS DE CHILE!!!!
Suggest correction
Give kudos to tab author, rate the tab!
1 2 3 4 5
comments
print report bad tab
guest
You may want to rate the tab now too:
select rating
Wanna post a correction for this tab? Suggest correction