Oops, an error
Loading. Please wait.

Marcha Turca Tab

version 2
version 2

Whole song

107 views 1 this week
no commentswrite comment
1 2 3 4 5
3 more votes to show rating
add to favorites
launch autoscroll
font size
0
reset
how to read this tab
guitar tuner
×
Best way to learn
"Marcha Turca"
Autoscroll
slow
fast
+/-
esc
set tempo
stop
Esta es la version mejorada de la marcha turca.
La otra vercion no estaba
completa pero esta si es la marcha turca completa
solo acomodenla bien

e -------------------------------7-5-4-5-7-5-4-5-8--
B -0------1---3-1-0-1-5---6-5-4---------------------
G --2-1-2-------------------------------------------
D --------------------------------------------------
A --------------------------------------------------
E --------------------------------------------------

e -5--8?-7--5-----5--7--5-----5--7--5---------------
B -------------8-----------8-----------8?-7--5------
G --------------------------------------------------
D --------------------------------------------------
A --------------------------------------------------
E --------------------------------------------------

e --------3--3--5-3--------------3--3--5-3----------
B --5--6------------6-5-3--5--6------------6-5-3----
G --------------------------------------------------
D --------------------------------------------------
A --------------------------------------------------
E --------------------------------------------------

e -------0--0--1-0---------------0--0--1-0----------
B -1--3------------3-1-0---1--3------------3-1-0----
G --------------------------------------------------
D --------------------------------------------------
A --------------------------------------------------
E --------------------------------------------------

e -------------------------------7-5-4-5-7-5-4-5-8--
B -0-------1----3-1-0-1-5---6-5-4-------------------
G ---2-1-2------------------------------------------
D --------------------------------------------------
A --------------------------------------------------
E --------------------------------------------------

e --5--7--8--7--5--4--5-----------------------------
B -----------------------5--6--3--1?-1/0/1----------
G ------------------------------------------2-------
D --------------------------------------------------
A --------------------------------------------------
E --------------------------------------------------

e --5--7--9----5--7--9--7--5-----------5--7----------
B ---------------------------9--7--9--------9--5----
G --------------------------------------------------
D --------------------------------------------------
A --------------------------------------------------
E --------------------------------------------------

e --5--7--9----5--7--9--7--5--------7--------5------
B ---------------------------9--7-----9--5----------
G --------------------------------------------------
D --------------------------------------------------
A --------------------------------------------------
E --------------------------------------------------


Esta es la parte rapida

e --9-10-9-7----7-----------------------------
B -----------10---10-9-7-10-9-7-6-7-9-6-------
G -------------------------------------6-8-10-
D --------------------------------------------
A --------------------------------------------
E --------------------------------------------

e ------------------------9-8-9-8-9-10-9-7----7---------------
B -----------9-10-9-10-12------------------10---10-9-7-10-9-7-
G -6-11-10-11--------------------------------------------------
D ------------------------------------------------------------
A ------------------------------------------------------------
E ------------------------------------------------------------

e --------------------------------------
B --5-7-9-5-------------7---------------
G ----------6-8-9-6-8-9---8-5-6-8-5-6---
D --------------------------------------
A --------------------------------------
E --------------------------------------


e -------------------2-4-5-5-4-2---------------------2-4-5-6-7
B -5-3-2-------2-3-5-------------5-5-3-2-------2-3-5----------
G -------4-2-4---------------------------4-2-4----------------
D ------------------------------------------------------------
A ------------------------------------------------------------
E ------------------------------------------------------------

e -------------------2-3-4-5-5-4-2----------------------------
B -5-3-2-------2-3-5---------------5-5-3-2---2-4---2---3------
G -------4-2-4-----------------------------4-----2---4---2-3-2
D ------------------------------------------------------------
A ------------------------------------------------------------
E ------------------------------------------------------------

e --9-10-9-7----7----------------------------------------
B -----------10---10-9-7-10-9-7-6-7-9-6------------------
G --------------------------------------6-8-10-6-11-10-11
D -------------------------------------------------------
A -------------------------------------------------------
E -------------------------------------------------------

e --------------9-8-9-8-9-8-9-8-10-9-10-9-10-9-10-9-10-9-7
B -9-10-9-10-12-------------------------------------------
G --------------------------------------------------------
D --------------------------------------------------------
A --------------------------------------------------------
E --------------------------------------------------------

e ---------7------7-9------------
B -10-9-10---9-10-----9-6-7-9-6-7
G -------------------------------
D -------------------------------
A -------------------------------
E -------------------------------

Y el final
no lo encontre en ninguna parte haci q lo ise yo mismo
si tiene alguna falla me avisan

e -9-9-9--9--10-9----9-10-9----10--9-9-9-9-7-12
B ----------------12--------12-----------------
G ---------------------------------------------
D ---------------------------------------------
A ---------------------------------------------
E ---------------------------------------------

e -9-9-10-9----9-10-9-7-7-7-7-5--9-5--12-5--9-5-9-5-12-5
B ----------12------------------------------------------
G ------------------------------------------------------
D ------------------------------------------------------
A ------------------------------------------------------
E ------------------------------------------------------

e-5-5------
B-5-5------
G-6-6------ FIN
D-7-7------
A----------
E----------

Espero q les alla  transcripsion: marcha turca pero
el acompañamiento para los que quieren hacer la segunda guitarrra
Suggest correction
Give kudos to tab author, rate the tab!
1 2 3 4 5
comments
print report bad tab
guest
You may want to rate the tab now too:
select rating
Wanna post a correction for this tab? Suggest correction