Oops, an error
Loading. Please wait.

Marcha Turca Tab

version 3
version 3

Whole song

79 views 1 this week
no commentswrite comment
1 2 3 4 5
3 more votes to show rating
add to favorites
launch autoscroll
font size
0
reset
how to read this tab
guitar tuner
×
Best way to learn
"Marcha Turca"
Autoscroll
slow
fast
+/-
esc
set tempo
stop
ESTA ES LA TABLATURA DE ACOMPAÑAMIENTO DE MARCHA TURCA ESPERO QUE LES
GUSTE

e ---0-0-0---0-0-0-----0-----0----0-0-0
B ---1-1-1---1-1-1-----1-----1----1-1-1
G ---2-2-2---2-2-2-----2-----2----2-2-2
D -------------------------------------
A -0-------0---------0-----0----0------
E -------------------------------------

e ---0-0-0--0-0-0----0----2---0
B ---0-0-0--0-0-0----0----0---0
G ---0-0-0--0-0-0----0----2---0
D -----------------------------
A ----------------------2------
E -0-------0-------0-----------

e ---0----0---3-------0----0----3-
B ---1----1---0-------1----1----0-
G ---0----0---0-------0----0----0-
D ------2----------------2--------
A -3----------------3-------------
E ----------3-----------------3---

e ---0---0---0----0--0---0-
B ---1---1---0----1--1---0-
G ---2---2---1----2--2---1-
D -------------------------
A -0---3--------0---3------
E ---------0-----------0---

e -----0-0-0---0-0-0---0---0-------------0----1
B -----1-1-1---1-1-1---1---1----4-4-4----1----0
G -----2-2-2---2-2-2---2---2----2-2-2----2----1
D ------------------------------------------0--
A --0--------0-------0---0---------------------
E ----------------------------1--------0-------

e ----0---1----0----0---0
B ----1---3----1----0---1
G ----2---2----2----1---2
D ------0----------------
A -3--------------------0
E -----------0----0------
Suggest correction
Give kudos to tab author, rate the tab!
1 2 3 4 5
comments
print report bad tab
guest
You may want to rate the tab now too:
select rating
Wanna post a correction for this tab? Suggest correction