Oops, an error
Loading. Please wait.

Matrimonio De Amor Tab

331 views 6 this week
no commentswrite comment
1 2 3 4 5
3 more votes to show rating
add to favorites
×
Save as Personal and add changes to this tab that will be seen only by you. Learn more ›
×
You can save this tab as Personal to edit and correct it or add notes. All changes will be seen only by you. Learn more »
save as personal
new!
launch autoscroll
font size
0
reset
how to read this tab
guitar tuner
Autoscroll
slow
fast
+/-
esc
set tempo
stop
Aqui ta esta version de Matrimonio de amor en esta
incluyo los bajos, esta es la version qwue se escucha en piano.
100% correcta

e|-0-0-2-2-3-3-2-2-0-0---------------------------------------0-0-2-2--|
B|---------------------0-0---------3-3-1-1-0-1-3-1---1-1-3-3----------|
G|-------------------------0?0---------------------0------------------|
D|-----------------------------2-2------------------------------------|
A|-----------------------------------0--------------------------------|
E|---0----------------------------------------------------------------|

e|---------------------------------------------------------------------|
B|-3-3-----1-1-0-0---0-1-0--0-----0---0-----0---0-----1-0-1-----0-1-1--|
G|-----2-2---------2-----2--0---0?--2-0---0---2-0---0-----2---2---2----|
D|-----------------------1--2-2-------2-2-------2-2-------2-2-----2----|
A|-----------------------2---------------------------------------------|
E|---------------3----------0---------0---------0---------0-------0----|

e|-----------0---0-------3---------------2-0-2---------------0---0------|
B|-0-1-3-3-3---3---0---------0-0-1-1-----------------0-0-------3--------|
G|-------5---------0---2---0---?-------2---------2-2-----0-0-----------0|
D|-------4-------------1-2-----------2-------0-----------------------2--|
A|-------5-----------2-------------0-------------------2-----------3----|
E|-----------------3---------------------------3------------------------|

e|-------------------------3---3-3-5-5---3-2-0-------0---------3---3-3-|
B|-------------0---0---------0-----------------3---3---3-0-------0-----|
G|-0-2-2---------2-------2---0---?---5---------2---------0---2---0-----|
D|-----------4---------1---------------2-------0-------------1-2-------|
A|-------0-3---------2---------------0---------------------2-----------|
E|-------------------------0---------------------2-------3-------------|

e|-5-5---3-2-0-------0---0-----0---------
B|-------------3---3---3-0-----0---------
G|---5---------5-------------?-0---------
D|-----2-------0-4-------2-----2---------
A|---0---------------------2---2---------
E|---------------------------3-0---------


Creo que se repite otra vez pero no le localizo bien donde
ahi le sdejo
Suggest correction
Give kudos to tab author, rate the tab!
1 2 3 4 5
comments
print report bad tab
guest
Wanna post a correction for this tab? Suggest correction