Oops, an error
Loading. Please wait.

Midnight On The Water tab

226 views 1 this week
no commentswrite comment
1 2 3 4 5
3 more votes to show rating
add to favorites
×
Save as Personal and add changes to this tab that will be seen only by you. Learn more ›
×
You can save this tab as Personal to edit and correct it or add notes. All changes will be seen only by you. Learn more »
launch autoscroll
font size
0
reset
how to read this tab
guitar tuner
edit
Autoscroll
slow
fast
+/-
esc
set tempo
stop
Midnight on the water
Trad. arr. Stefan Grossman, John Renbourn & Dutch baker
TablEdited by David Lefebvre
Accordage : D A D G B E  Tuning 2 :  F# B E A C# F#       Signature Rythmique: 9/16

  |      | e   |   s    E e s e s    E e s e s    E | s e     s    |   e s e s    e s E E    E | s | s s  >1Q |      E s e s    E | s e s   
|------||-------------|---5--------|------------|-----0-------0--|--------------|-0--------|-------------||-------||----------|-0-----0-1--|
|------|*--5----------|---5--------|---8---8-6--|-5-----6--------|-----1---4/5--|---3-1-0--|-1---------0-||-1-----*|-1-0h1-3--|-----4------|
|------||--5-------5--|-5---5-7-5/-|-9---0-9-7--|-5-----------0--|-------2------|-0--------|-----0---0---||-------||----------|-0-----0-2--|
|-2-3--||5---5-5-7---|------------|------------|---5---7--------|---------4/5--|---3-2-0--|---2---------||---2-3-||---0h2-4--|-----4------|
|------|*-------------|------------|------------|----------------|-3------------|----------|-3-----------||-3-----*|-3--------|---3--------|
|------||-------------|------------|------------|----------------|--------------|----------|-------3-----||-------||----------|------------ 
|
|------||-------------|------------|------------|----------------|--------------|----------|-------------||-------||----------|---------0--|
|------||-------------|------------|---------0--|----------------|-------3-0----|----------|-------------||-------||-------2--|-3---0-3----|
|------||-------------|------------|-2-2---2----|-2--------------|-----------2--|----------|---2---------||-------||---2h4----|-------0----|
|-0h2--||4-4---4------|-4-4---4----|-----4------|-0---4-2h4p2-0--|-4-2----------|-4-2-0-2--|-4---4-2h4p2-||-0-0h2-||-0--------|-4----------|
|------||0------------|-2----------|-4----------|-------0--------|--------------|-0-----4--|-5-0---4-----||-------||----------|---5--------|
|------||------0------|-------0----|------------|---0------------|-0---0---5----|----------|-------------||-4-----||-4--------|---0--------|
  e s    E E s E s      E E   E      E e s e s    E e s t t s s    e s e s e s    e s E E    E e s s s s    Q e s    Q s e s    E e s e s   

  E | s E s    E | s E s    E | s s s s    E | s E s    E | s E s    E |   | s    |     |   |      | E s E s    E E E    E | s E s   
|-0-----0-1--|-0-----0----|-----0-----0--|-1---0-1-3--|-1---0-1----|-0----------|----------------|---1---1-3--|-1---5--|-3---2-3-4--|
|-----4------|-----4---3--|-1-----3/5----|------------|---------0--|-1----------|----------------|-----1------|---1----|-5---4-5-3--|
|-0-----0-2--|-0-----0-1--|-2------------|-2---2-2-4--|-2---0-2----|-2-------0--|----------------|---2---2-3--|-2---5--|------------|
|-----4------|-----4------|--------------|---0--------|---0--------|-----1h2----|-2-1-0----------|------------|--------|---0--------|
|---3--------|---3--------|---0----------|------------|------------|---0--------|-------3-2h3----|------------|--------|------------|
|------------|------------|--------------|------------|------------|------------|-------------0--|-1----------|--------|------------ 
|
|---------0--|------------|--------------|-0-----0----|-0-----0----|-2---5-2----|----------------|---------0--|--------|------------|
|-3---0-3----|-3---0------|-----------3--|-0-------7--|------------|-3---5-3/2--|-3p--2-------2--|-3-----3----|-3---3--|-3---0------|
|-------0----|-------2----|---------2----|-0---7------|-----7------|-4----------|-4p--2-4-2h4-2--|-4---4------|-4---4--|-2-----2----|
|-4----------|-4-------4--|-0-----0------|-2-----0----|------------|-4----------|-------4-2h4----|---5---5----|---5-6--|---0-----4--|
|------------|-------4----|-2------------|------------|-7----------|-2b---------|----------------|------------|--------|------------|
|---0--------|---0--------|---0----------|---2--------|---5--------|------------|----------------|-5----------|-5---6--|-0----------|
  E Q s e s    E e s e s    E E   E s s    E e s e s    E e s E      E q s e s    e s s e s e s    E e s e s    E E E    E e s e s   

  E | s t t s s    e s | s e s    e s E E    E | s | s s    E s s s s    s s s s s s s s s    E   E   E    s s s s s s s s s    E |   e     s   
|-5--------------|-------0------|-0--------|--------------|------------||----0--------------|-0---0---0--|-3---3---3---1---1--|-0--------------|
|-5---1-0h1p0----|---1-----4/5--|---3-1-0--|-1---------0--|-1-------1--|*--1-------1-1h3-1--|-5---3---1--|-5---5---5---3---3--|-1-----6/----8--|
|-5-----------2--|-0------------|-0--------|-----0---0----|---0-0h2----||0-----0h2----------|-5---4---2--|---0---0---0---0----|-------7/----9--|
|----------------|---------4/5--|---3-2-0--|---2----------|------------||-------------------|------------|--------------------|----------------|
|---0------------|-----3--------|----------|-3------------|-3----------|*-------------------|------------|--------------------|---3------------|
|----------------|--------------|----------|-------3------|------------||-------------------|------------|--------------------|---------------- 
|
|----------------|--------------|----------|--------------|------------||-------------------|------------|--------------------|----------------|
|----------------|-------3-0----|----------|--------------|------------||-------------------|------------|-----------------0--|----------------|
|----------------|---2-------2--|----------|---2----------|------------||-------------------|------------|-2-----2-----2------|-2--------------|
|-0---4-2h4p2h0--|-4---0--------|-4-2-0-2--|-4---4-2h4p2--|-0---0h--2--||4-----4-----4------|-4---4---4--|-4---0-2---4-4------|-4---4-2h4p2p0--|
|-2--------------|--------------|-0-----4--|-5-0---4------|------------||5---0-4---0--------|-5-0-4-0----|-----------5--------|----------------|
|---0------------|-0-------5----|----------|--------------|-4----------||------------0------|---------0--|--------------------|---0------------|
  E e s t t s s    e s e s e s    e s E E    e E s s s s    Q   e   s    e   s e   s E        e s e s E    e   s e   s e   s    E e s t t s s   

  e s | s e s    e s E E    E E   s s s  >1E s s s s  >2E s e s    E | s e s    E | s e s    E | s e s    E | s s s s    E | s e s   
|-8-8---12108--|----------|-------------||-----------||----------|-0-----0-1--|-0-----0-1--|-0-----0----|-----0-----0--|-1---0-1-3--|
|-8-8---12109--|-8/6-5-6--|-5-----3---3-||-1-------1-*|-1-0h1-3--|-----4------|-----4------|-----4---3--|-1-----3/5----|------------|
|--------------|-9/7-5----|---5-----0---||---0-0h2---||----------|-0-----0-2--|-0-----0-2--|-0-----0-1--|-2------------|-2---2-2-4--|
|--------------|-------7--|-5-----3-----||-2---------||---0h2-4--|-----4------|-----4------|-----4------|--------------|---0--------|
|--------------|----------|-------------||-----------*|-3--------|---3--------|---3--------|---3--------|---0----------|------------|
|--------------|----------|-------------||-----------||----------|------------|------------|------------|--------------|------------ 
|
|--------------|----------|-------------||-----------||----------|---------0--|---------0--|------------|--------------|-0-----0----|
|-------3-0----|----------|-------------||-----------||-------2--|-3---0-3----|-3---0-3----|-3---0------|-----------3--|-0-------7--|
|---2-------2--|----------|---2---------||-----------||---2h4----|-------0----|-------0----|-------2----|---------2----|-0---7------|
|-4---0--------|-4-2-0-2--|-4---4-2h4p2-||-0---0h--2-||-0--------|-4----------|-4----------|-4-------4--|-0-----0------|-2-----0----|
|--------------|-0-----4--|-5-0---4-----||-----------||----------|---5--------|------------|-------4----|-2------------|------------|
|-0-------5----|----------|-------------||-4---------||-4--------|---0--------|---0--------|---0--------|---0----------|---2--------|
  E s E s E s    E s E E    E E s s s s    Q   E   s    Q s E s    E E s E s    E Q s E s    E E s E s    E E   E s s    E E s E s   

  E | s e s    E |   | s    |     |   |      | e s e s    E E E    E | s e s    E | s t t s s    e s | s e s    e s E E    E | s | s s   
|-1---0-1----|-0----------|----------------|---1---1-3--|-1---5--|-3---2-3-4--|-5--------------|-------0------|-0--------|--------------|
|---------0--|-1----------|----------------|-----1------|---1----|-5---4-5-3--|-5---1-0h1p0----|---1-----4/5--|---3-1-0--|-1---------0--|
|-2---0-2----|-2-------0--|----------------|---2---2-3--|-2---5--|------------|-5-----------2--|-0------------|-0--------|-----0---0----|
|---0--------|-----1h2----|-2-1-0----------|------------|--------|---0--------|----------------|---------4/5--|---3-2-0--|---2----------|
|------------|---0--------|-------3-2h3----|------------|--------|------------|---0------------|-----3--------|----------|-3------------|
|------------|------------|-------------0--|-1----------|--------|------------|----------------|--------------|----------|-------3------ 
|
|-0-----0----|-2---5-2----|----------------|---------0--|--------|------------|----------------|--------------|----------|--------------|
|------------|-3---5-3/2--|-3p--2-------2--|-3-----3----|-3---3--|-3---0------|----------------|-------3-0----|----------|--------------|
|-----7------|-4----------|-4p--2-4-2h4-2--|-4---4------|-4---4--|-2-----2----|----------------|---2-------2--|----------|---2----------|
|------------|-4----------|-------4-2h4----|---5---5----|---5-6--|---0-----4--|-0---4-2h4p2h0--|-4---0--------|-4-2-0-2--|-4---4-2h4p2--|
|-7----------|-2b---------|----------------|------------|--------|------------|-2--------------|--------------|-0-----4--|-5-0---4------|
|---5--------|------------|----------------|-5----------|-5---6--|-0----------|---0------------|-0-------5----|----------|--------------|
  E e s E      E q s e s    e s s e s e s    E e s e s    E E E    E e s e s    E e s t t s s    e s e s e s    e s E E    e E s s s s   

  E |      | | |    | | |    | |   |      | |   |          | s | s e s    E   E E    E |   s s s    h   
|--------|--------|--------|------------|----------------|--------------|----------|--------------|----|
|-1------|--------|--------|------------|----------------|---5-----4/5--|-8-----6--|-5-----3---3--|-1--|
|--------|--------|--------|------------|----------------|-------0------|-----5----|---------0----|----|
|--------|--------|--------|------------|----------------|-5------------|-----7-6--|-5-----3------|-2--|
|-3------|--------|--------|------------|----------------|--------------|----------|--------------|----|
|--------|--------|--------|------------|----------------|--------------|----------|---3----------|---- 
|
|--------|--------|--------|------------|----------------|--------------|----------|--------------|----|
|--------|--------|--------|---------0--|----------------|-------3-0----|----------|--------------|-3--|
|--------|--------|--------|-2-2---2----|-2--------------|---2-------2--|----------|---2----------|----|
|-0-0h2--|-4-4-4--|-4-4-4--|-----4------|-0---4-2h4p2p0--|-4------------|-4-2-0-2--|-4---4-2-4-2--|-0--|
|--------|-0------|-2------|-4----------|-------0--------|--------------|-0-----4--|-5-0---4------|----|
|-4------|-----0--|-----0--|-------0----|---0------------|-0---0---5----|----------|--------------|-4--|
  Q e s    E E E    E E E    E e s e s    E e s t t s s    e s e s e s    e s E E    E e s s s s    h   


Created with TablEdit 

            
            
Suggest correction
Creating personal tab
Creating personal tab
You can edit any tab online and save it as your Personal.

You can edit, replace or remove any tab part or add personal notes – all changes will be seen only by you.

Personal tabs can be accessed anytime from any device, even offline.
Learn more »
Give kudos to tab author, rate the tab!
1 2 3 4 5
comments
print report bad tab
guest
Wanna post a correction for this tab? Suggest correction