Oops, an error
Loading. Please wait.

Milonga Del Angel Tab

296 views 1 this week
no commentswrite comment
1 2 3 4 5
1 last vote to show rating
add to favorites
launch autoscroll
font size
0
reset
how to read this tab
guitar tuner
×
Best way to learn
"Milonga Del Angel"
Autoscroll
slow
fast
+/-
esc
set tempo
stop
Este es un gran tango de piazzolla, sugiero que antes de empezar
atocar esta hermosa pieza la escuchen a la perfeccion para entender
la compleja melodia de esta.

espero les sirva


cantabile (melodia en armonicos)

              .                          .
E||--5-----------------------|--5--------------------0--|
B||--------5--0-----5-----8--|--------5--0-----5--------|
G||-----5--------5-----------|-----5--------5-----------|
D||--------------------------|--------------------------|
A||-----------7--------------|-----------7--------------|
E||--5-----------------0-----|--5-----------------0-----|

     1  1  1     1 1      4     1  1  1  3  1  1
     1        3                 1


--5--------------------8--|--5----------------------|
--------5--0-----5--------|--------5--0-----5-------|
-----5--------5-----------|-----5--------5----------|
--------------------------|-------------------------|
-----------7--------------|-----------7-------------|
--5-----------------0-----|--5-----------------0----|

  1  1  1  3  1  1     4     1  1  1  3  1  1
  1


--8--------------------7-5-|--8-----------------7-8-7-----|
--------5--------5---------|--------5--------5--------10--|
-----5--------5------------|-----5--------5---------------|
---------------------------|------------------------------|
-----------8--------7------|-----------8--------7---------|
--5------------------------|--5---------------------------|

  4  1  1     1   1 3  4 1    4  1  1     1  1  1 2 1 4
  1       4                   1        4        1


--8-----------------7--6-5-|--------------------------|
--------5--------5---------|--5-----------------------|
-----5--------5------------|-----------5--5-----------|
---------------------------|--------------------------|
-----------8--------7------|----7--8--------8--8H-7---|
--5------------------------|--5-----------------------|

  4                 4  2      1 3  4   1    4  4  3
  1        3        3         1


--5----------------5-----|-5-----------------3-----|
----------5--6--8----8-6-|-------------3--5-----6--|
-------5-----------------|----------4--------------|
----7--------------------|-------3-----------------|
--5----------------------|----5--------------------|
-------------------------|-3-----------------------|

  1 3  1  1  2  4  1 4 2   4  3     2     4     4
  1                           1


--0--1--3-------------|---------------------|
--0----------------3--|---------1--------0--|
--0----------------0--|---------0--------0--|
--2-------------0-----|-----2---------0-----|
--3----------2--------|--0------------------|
----------------------|------------3--------|


-----------0--1----3-1-0---|--0-----------------------|
--------3-----0----------3-|--0----3----3---1-0-3-1-0-|
-----2--------2------------|--1---------2-------------|
-----0---------------------|------------3-------------|
-----------3--2------------|--------------------------|
--1------------------------|--0---------0-------------|


---------------------------|--------0--0--5--5--7--7--|
--1--0-0-1--0-----------0--|--1--1--0-----------------|
--2------------2-----2-----|--------------------------|
--2------------2--2--------|--------3-----------------|
--0------------0-----------|--------------------------|
---------------------------|--3-----------------------|


--8--7--5--7-8-8s-10-8--7h8p7-5h7-|--3--------------1--3-1-0---|
--7-------------------------------|-----------2--1-----------3-|
--5-------------------------------|----------------------------|
--7-------------------------------|--------1-------------------|
--0-------------------------------|-----3----------------------|
----------------------------------|--1-------------------------|

  4  3  1  3 4    4  2  1 2   1 3    4  3  1  2
  3
  1                                  1
  2


--0----------------------|-----------------------------------|
-------1-----3--0-----1--|--------0--------------------------|
----------2--------0-----|--2--------0-----2--------0--------|
-------------------------|-----3--------2-----3--0-----2-----|
-------------------------|--------------------------------3--|
--0----------------------|-----------------------------------|

      1   2  3        1     2  3        1  2  3        1  2


|--8----------------7--5--|
|--------5--5--5----------|
|--------5--5--5----------|
|-------------------------|
|-----8--------7----------|
|--5----------------------|


--8----------------7-8-7-5-|--8------------------7-6-5-|
--------5--5--5------------|--------5--5--5------------|
--------5--5--5------------|--------5--5--5------------|
---------------------------|---------------------------|
-----8--------7------------|-----8--------7------------|
--5------------------------|--5------------------------|

  4  3
  1


--0---------------------0-1-|-3S-5--------------3--5-3---|
-------1--1--1----0-1-3-----|----------------3---------6-|
-------2--2--2--2-----------|-------------4--------------|
-------3--3--3--------------|----------3-----------------|
--0-------------------------|-------5--------------------|
----------------------------|----3-----------------------|

                              4


--5-5---3--5S-8--5--------|------------------|
--------5----------8--5---|---------0--------|
--------3---------------5-|--2------2--------|
--------------------------|--0------0--------|
----3---------------------|--0------2--3--2--|
--------------------------|--1---------------|


    4   1  4
        3
    1   1

---------------------|
---------------------|
--0------------------|
-------3--3P-2--0----|
-------------------3-|
---------------------|

-------------0--1---3-1-0-|-----0----------------------|
---------3----------------|--3--0---3------3-1-0-3-1-0-|
------2-------------------|-----1----------2-----------|
------0-------------------|----------------3-----------|
---2---------3--2---------|----------------------------|
--------------------------|-----0----------0-----------|


---------------------------|-------------0--5--4--5-7-|
---1--0-0P-1H-0----0---1-0-|------0---1---------------|
---2------------2----------|---2----------------------|
---2------------2----------|---2----------------------|
---0------------0----------|--------------------------|
---------------------------|---3----------------------|


--8--7H-8P-7-7S-10--8--7--|----7-------------------------|
--7-----------------------|-10-----------------7--10-9-7-|
--8-----------------------|---------8--------7-----------|
--7-----------------------|-------7----------------------|
--0-----------------------|----8-------8--7--------------|
--------------------------|------------------------------|

  4  3  4  3        2   1   4  1  1 3     1  1 1   4 3 1
  2                            2
  3
  1


----------------------------|--5-----------------------|
--9-10-----------0----5-----|--------5--0---------5----|
--------------9----5--------|-----5-----------5--------|
----------10----------------|--------------------------|
----0------------7----------|-----------7--------------|
-------------------------0--|--5--------------------0--|

  3 4      3  2  3 1  1        1


-----0--1-----0--3-----0--|--5--3--5-----------------|
-----2--2-----2--2--------|--3-----------------------|
-----0--0-----0--0--------|--3-------3--3h-2---------|
--------------------------|--3---------------3--3H-2-|
--0--------1--------0-----|--0-----------------------|
--------------------------|--------------------------|

        2        4
    3   3  1  3  3


--------0-----------------|--0-----0-----------------|
-----3--------1--3-----0--|--1--3--------------------|
-----2--------2-----------|--------------------------|
--0--------0--------0-----|--0-----------------------|
--------------------------|-----------0-----0--------|
--------------------------|--------------4-----0--1--|

    3         1  3
    2         2


-----2--3-----2--5-----2--|--7-------7-----------------|
-----1--1-----5--5--------|--7---10--------------------|
-----2--2-----2--2--------|--9-------------------------|
--------------------------|--10------------------------|
-----------3--------2-----|-------------3--3h-2--------|
-H2-----------------------|---------------------3-3H-2-|

        4  2  1  4     1     1   4
              4  4  1        1
              1  1           2
                             3


------------------------|--2-0-2--------------|
-----0--1----2--3----4--|--0------------------|
------------------------|--0------------------|
----------------0----1--|---------------------|
-----2--3----4----------|---------------------|
--0---------------------|--0------0--1---2-H--|


-------------0--1----2--|
-----3--4---------------|
------------------------|
-----0--1----2--3----4--|
------------------------|
--3---------------------|


--5-3-5--------------|-------1--2--3--4----5--|
--3------------------|------------------------|
--3------------------|-------------0--1----2--|
---------------------|-------3--4-------------|
------------------0--|H-1---------------------|
--3------3H--4-------|------------------------|


--8--7--8----------------|
--6-------------6--------|
--6-----------7-------7--|
-------------------------|
-----------9-------8-----|
--6----------------------|


--8-----9-----------6-----|--8-----------6-----------|
--------------------------|--------9-----------------|
-----6-----6-----6-----6--|-----6-----6-----6-----6--|
--------------------------|--------------------------|
--------8-----8-----8-----|--------8-----8-----8-----|
--6-----------------6-----|--6-----------6-----------|

  3  1  4  1                 3     4
  1     3     3                    3

--------------------------|-----------------------|
--7-----9-----------6-----|--7----6---------------|
-----6-----6-----6-----6--|--7---------6----------|
--------------------------|-----------------8-----|
--------8-----8-----8-----|--------------------9--|
--6-----------------6-----|--6--------------------|


-------------------------|
--------6----------------|
-----6-------------6-----|
-------------8--8--------|
--8----------9-----------|
--6-------------------1--|


-------1--------1----|------------1--------3--2--|

----2--------2-------|--4------------------------|

----------3----------|-----3---------3-----------|

----------4--------3-|--1-----4---------3--------|

-1-------------------|------------4--------3--1--|

---------------------|---------------------------|


--1-----------------------|
-----1-----4--------2--1--|
--------------2-----------|
--------3--------3--------|
--0-----------------------|
-----------1========S=====|
           ^sostenla!

--------------------------|--8--------6-----4--2--1--|
--------6-----------------|--------------------------|
--6--8-----------6-----6--|-----6--------6-----------|
--------------8-----------|--------8-----------------|
-----------9--------8-----|-----------8--------------|
S-6-----------------------|--4-----------------4-----|
  1  3     4  3  1  3


--0-------------------|
----------1-----------|
-------3--------3-----|
-------------2--------|
----------------------|
--3----------------3--|

--0----------------------|--1--------2--------1-----|
--------2--1-------------|-----1--------1--------1--|
-----3-------------3-----|--------2--------2--------|
----------------1--------|--------------------------|
-------------------------|--------------------------|
--2-------------------2--|--1-----------------------|


---------------------------|-----------1--------1-----|
--4---------2--------1-----|-----------2--------2-----|
------2--------2-------2---|--------3--------3--------|
---------1--------1------1-|--------------4--------3--|
---------------------------|-----1--------------------|
--1------------------------|--1-----------------------|

                              1  1  3  1     3     4
                                       2  4


--------1----------1-----|--------0----------0-----|
--------2----------2-----|--------1----------1-----|
-----3----------3--------|-----2----------2--------|
-----------4----------3--|-----------3----------2--|
--1----------------------|--0----------------------|
-------------------------|-------------------------|


--------0--------0-------|
--------1--------1-------|
-----2--------2----------|
-----------3----------2--|
--0----------------------|
-------------------------|


--5-----------------------|--5--------------------0--|
--------5--0-----5-----8--|--------5--0-----5--------|
-----5--------5-----------|-----5--------5-----------|
--------------------------|--------------------------|
-----------7--------------|-----------7--------------|
--5-----------------0-----|--5-----------------0-----|


--5--------------------8--|--5----------------------|
--------5--0-----5--------|--------5--0-----5-------|
-----5--------5-----------|-----5--------5----------|
--------------------------|-------------------------|
-----------7--------------|-----------7-------------|
--5-----------------0-----|--5-----------------0----|


--8--5--------------------|-----------------------5--||
-----------5--0-----5-----|-----------------------5--||
--------5--------5--------|--------------5H-6-----5--||
--------------------------|-----------7-----------7--||
--------------7-----------|-----7H-8--------------8--||
-----5-----------------0--|--5--------------------5--||


Cualquier duda, comentario, queja, sugerencia, correccion etc.
no duden en contactarme
Suggest correction
Give kudos to tab author, rate the tab!
1 2 3 4 5
comments
print report bad tab
guest
You may want to rate the tab now too:
select rating
Wanna post a correction for this tab? Suggest correction