Oops, an error
Loading. Please wait.

Minuet In A Minor Tab

82 views 3 this week
no commentswrite comment
1 2 3 4 5
3 more votes to show rating
add to favorites
launch autoscroll
font size
0
reset
how to read this tab
guitar tuner
×
Best way to learn
"Minuet In A Minor"
Autoscroll
slow
fast
+/-
esc
set tempo
stop
         Title : Minuet in A Minor	
        Artist : Henry Purcell
Transcribed by : Kevin J. Manges (fretmeister@ or 	  	
                 braumstr@   (formerly braumeister@
Downloaded From: 
	   Notes : This is best viewed in Courier New, 10pt font.
     Difficulty: Easy
         UpDate: 31 Jul 99
================================================================================

Legend
------
Finger selection shown below staff.


                                 Minuet in A Minor                            

Transcribed by Kevin Manges                                   Henry Purcell
(braumstr@


E||-------------------|-----------------|-----------------|----------------|
B||-----------0-------|--0----0---------|-----------------|--0--------0----|
G||--2--1--2-----2----|-----------------|--2----1----2----|--1-------------|
D||-------------------|------------2----|-----------------|----------------|
A||--0----------------|-----------------|-----------------|----------------|
E||-------------------|--3--------------|--1--------------|--0-------------|
                                           3    2    3
                                           1


E|-------------------|-----------------|-----------------||-------------0----|
B|--1--0--1--3--1----|--0----0---------|-------0---------||-------------1----|
G|--------0----------|-----------------|--2---------1----||*--2--------------|
D|-------------------|-------0----2----|-----------------||*-----------------|
A|--3-----------3----|------------0----|--3---------2----||---3----0----0----|
E|-------------------|--3--------------|-------3---------||------------------|


E|-------------0----|------------------|------------------|--0------------|
B|--3----1--0-------|--1---------------|--1----3------1-3-|--0------------|
G|--4---------------|-------4--2--4----|------------------|--1------------|
D|------------------|------------------|------------------|---------------|
A|--0---------------|--0----0----------|------------------|---------------|
E|-------------4----|-------------3----|--1---------------|--0------------|


E|-------------------|-----------------|-----------------|----------------|
B|-----------0-------|--0----0---------|-----------------|--0--------0----|
G|--2--1--2-----2----|-----------------|--2----1----2----|--1-------------|
D|-------------------|------------2----|-----------------|----------------|
A|--0----------------|-----------------|-----------------|----------------|
E|-------------------|--3--------------|--1--------------|--0-------------|


E|-------------------|-----------------|------------------||----------------||
B|--1--0--1--3--1----|--0----0---------|-------0----------||----------------||
G|--------0----------|-----------------|--2---------1----*||--2-------------||
D|-------------------|-------0----2----|-----------------*||----------------||
A|--3-----------3----|------------0----|--3---------2-----||--0----0--------||
E|-------------------|--3--------------|-------3----------||----------------||

Purcell, Henry:  Minuet in A Minor
Transcribed by Kevin J. Manges
Downloaded From: 
Suggest correction
Give kudos to tab author, rate the tab!
1 2 3 4 5
comments
print report bad tab
guest
You may want to rate the tab now too:
select rating
Wanna post a correction for this tab? Suggest correction