Oops, an error
Loading. Please wait.

Morgana Tab

22 views 1 this week
no commentswrite comment
1 2 3 4 5
3 more votes to show rating
add to favorites
launch autoscroll
font size
0
reset
how to read this tab
guitar tuner
Autoscroll
slow
fast
+/-
esc
set tempo
stop
Help us to improve Ultimate-Guitar.com Take our survey!
×
Accordage : E A D G B E       Signature Rythmique: 4/4

  | e e e q e e    e e | e E s e e    | s s | e | e | e    e s s e e Q s s    q q q   q q e t t s    q   q t t s q   e          | e s s s s e e | e   
|-----5----------|------------------|---------3---1p--0--|------------------|---3-----5-3----------|-----0--------------------|-------------0-5------|
|---5---8-6-5-6--|-3-----0----------|---1----------------|-3h5p3-1p0--------|-3---5-------6-5h6p5--|-------3h5p3--------------|---0-1p0h1h3-------8--|
|----------------|---5-----2-0-2p0--|-----0--------------|-------0---2-4h5--|----------------------|-7---0-------5---2--------|----------------------|
|-7-------0------|-3---5---0---0----|-3-----2---0--------|-5---------2------|-------------0--------|---7-----------5-3-2h3p2--|-0--------------------|
|----------------|------------------|---------------3----|------------------|-------3--------------|--------------------------|-----0-----------7----|
|----------------|------------------|--------------------|-------3----------|----------------------|--------------------------|---3------------------|
  h       h        h   e   q   q      q     q   q   q      q     q   Q              q     q            q           e e t t s    q e q           q     

  q e h q    q H   | q    e   e e | e q e    q e | q e     | e    q   e e | e q e    q q | e q q    e e e e q q    e s t t e e q q   
|-0-----0--|---0--------|-------------0----|--------------------|-------------0----|-0-----1---3--|-1-0-1-3-5-8--|-7h8p7p5h7-5------|
|---3-1----|---0--------|---------------3--|-1-----0---------0--|-1-------------3--|---1-----3----|--------------|-------------8-8--|
|-2---0----|-2-------1--|-2---2-0---2------|---0-----2-------0--|-----2-0---2------|-0-------0----|---------5-0--|-0-----------0-0--|
|-3--------|-2---2------|---2-----3--------|-2-----0---0h2-0----|---2-----3--------|--------------|-0-------3----|-0-----------0-0--|
|----------|------------|-0----------------|---------3----------|-0----------------|-----3---2----|--------------|------------------|
|-------3--|-------0----|------------------|-----3--------------|------------------|--------------|-----------8--|------------------|
  q     q    Q   e h      h e     h          q   h q q s s q      h e     h              q   q      h       q q    e           q q   

  h h    h q e e e    q e e e q e e    e e | e E s e e    | s s | e | e | e    e s s e e Q s s    q q q   q q e t t s    q   q t t s q   e         
|-5-8--|-7-8-7-5h7--|-5---5----------|------------------|---------3---1p--0--|------------------|---3-----5-3----------|-----0--------------------|
|------|------------|---5---8-6-5-6--|-3-----0----------|---1----------------|-3h5p3-1p0--------|-3---5-------6-5h6p5--|-------3h5p3--------------|
|-5-9--|-7----------|----------------|---5-----2-0-2p0--|-----0--------------|-------0---2-4h5--|----------------------|-7---0-------5---2--------|
|-3----|-5----------|-7-------0------|-3---5---0---0----|-3-----2---0--------|-5---------2------|-------------0--------|---7-----------5-3-2h3p2--|
|------|------------|----------------|------------------|---------------3----|------------------|-------3--------------|--------------------------|
|---8--|------------|----------------|------------------|--------------------|-------3----------|----------------------|--------------------------|
  h h    h            h       h        h   e   q   q      q     q   q   q      q     q   Q              q     q            q           e e t t s   

  | e s s s s e e | e    q e h q    q h   | q    q | e h      
|-------------0-5------|-0-----0--|---0--------|----------|--|
|---0-1p0h1h3-------8--|---3-1----|---0--------|----------|--|
|----------------------|-2---0----|-2-------2--|-1---1-2--|--|
|-0--------------------|-3--------|-2---2------|---4---2--|--|
|-----0-----------7----|----------|------------|-------0--|--|
|---3------------------|-------3--|-------0----|-0--------|--|
  q E q           q      q     q    q   q h      q E   h      


Created with TablEdit 
Suggest correction
Give kudos to tab author, rate the tab!
1 2 3 4 5
comments
print report bad tab
guest
You may want to rate the tab now too:
select rating
Wanna post a correction for this tab? Suggest correction