Oops, an error
Loading. Please wait.

Mozart - Tema Con Variaciones I Tab

151 views 1 this week
no commentswrite comment
1 2 3 4 5
3 more votes to show rating
add to favorites
launch autoscroll
font size
0
reset
how to read this tab
guitar tuner
Autoscroll
slow
fast
+/-
esc
set tempo
stop
Help us to improve Ultimate-Guitar.com Take our survey!
×
1 |---------------------------------------
2 |-------------0-0-----------------------
3 |-------2-2--------2--0-0---------------
4 |--0-0---------------------4-4--2-2--0--  X 2
5 |---------------------------------------
6 |---------------------------------------


1 |------------------------------------------
2 |------------------------------------------
3 |--2-2--0-0------------2-2--0-0------------
4 |------------4-4--2-2------------4-4--2-2--
5 |------------------------------------------
6 |------------------------------------------


1 |-----------------------------------------
2 |-----------------------------------------
3 |------------0-0--------------------------
4 |-------2-2-------2--0-0------------------
5 |--0-0--------------------4-4-------------
6 |------------------------------2-2--0-----


 Esta es la primera parte de tres, se puede tocar tanto
en guitarra como en flauta.
Suggest correction
Give kudos to tab author, rate the tab!
1 2 3 4 5
comments
print report bad tab
guest
You may want to rate the tab now too:
select rating
Wanna post a correction for this tab? Suggest correction