Oops, an error
Loading. Please wait.

Mozart - Tema Con Variaciones Ii Tab

94 views 1 this week
no commentswrite comment
1 2 3 4 5
3 more votes to show rating
add to favorites
launch autoscroll
font size
0
reset
how to read this tab
guitar tuner
×
Best way to learn
"Mozart - Tema Con Variaciones II"
Autoscroll
slow
fast
+/-
esc
set tempo
stop
1 |--------------------------------------------
2 |-------3-3-------3-3-------0-2-3------------
3 |----------------------0-2----------0-2-2----
4 |---------------------------------4----------  X 2
5 |--0-0-------0-0---------------------------0-
6 |--------------------------------------------


1 |----------------------------------------
2 |--3---3---3--------0--------------------
3 |----------------2-----2-----------------
4 |----0---0----0--------------------------  X 2
5 |----------------------------------------
6 |----------------------------------------


1 |-------------------------------------------
2 |----3----3-----0-2-3-----0-3---------------
3 |-----------0-2--------0----------0-2-2-----
4 |------------------------------4---------0--
5 |--0----0-----------------------------------
6 |-------------------------------------------


bueno espero q les guste, pq estoy segura de que
la primera (variacion I) voz esta bien, pero esta
 no se si suena totalmente como corresponde.
Suggest correction
Give kudos to tab author, rate the tab!
1 2 3 4 5
comments
print report bad tab
guest
You may want to rate the tab now too:
select rating
Wanna post a correction for this tab? Suggest correction